close

Enter

Log in using OpenID

Comunicato Ufficiale N° 18 del 25/09/2014 A tutte le Società

embedDownload
- CRL 18/1 -
Federazione Italiana Giuoco Calcio
Lega Nazionale Dilettanti
COMITATO REGIONALE LAZIO
Via Tiburtina, 1072 - 00156 ROMA
Tel.: 06 416031 (centralino) - Fax 06 41217815
Indirizzo Internet: ww.lnd.it - www.crlazio.org
e-mail: [email protected]
Sponsor Tecnico Unico
Stagione Sportiva 2014/2015
Comunicato Ufficiale N° 18 del 25/09/2014
ATTIVITA’ DI SETTORE GIOVANILE E SCOLASTICO
A tutte le Società
Grazie ai nuovi strumenti informatici, in presenza di una sanzione comminata ad un calciatore, è
immediatamente possibile verificare la sua posizione di tesseramento e rilevare eventuali irregolarità.
Pertanto si invitano le società a verificare, con la massima scrupolosità, la posizione dei propri
tesserati prima di impiegarli nelle gare al fine evitare spiacevoli conseguenze che potrebbero mettere a
repentaglio il risultato faticosamente conseguito sul campo.
In particolare si prega di prestare la massima attenzione a queste casistiche.
A) Rinnovo del tesseramento per i calciatori stranieri tesserati in seguito a svincolo o ricevuti in
conseguenza di trasferimento a titolo definitivo.
Si rammenta che la decorrenza del tesseramento per le sopraindicate categorie di calciatori non è
dal giorno successivo alla data di spedizione del plico o del deposito, ma viene determinata mediante
pubblicazione sul Comunicato Ufficiale, dell’elenco dei calciatori stranieri autorizzati all’impiego.
B) Primo tesseramento calciatori stranieri
Per queste tipologie di tesseramento, l’autorizzazione viene rilasciata dall’Ufficio tesseramento della
F.I.G.C. e comunicata direttamente alla società.
E’ opportuno evidenziare che i calciatori rientranti nelle tipologie A e B che possono essere
impiegati nelle gare, sono desumibili dalla stampa del tabulato calciatori che ogni società può
liberamente effettuare all’interno della propria area riservata.
C) Calciatori in possesso dello svincolo per decadenza (art. 32 bis delle NOIF)
Si precisa che tali calciatori sottoscrivono esclusivamente tesseramenti con vincolo annuale e
pertanto, qualora intendano restare con la stessa società per la quale sono stati tesserati nella stagione
precedente, devono nuovamente sottoscrivere la richiesta di aggiornamento posizione.
Nel ribadire l’invito ad una sempre maggiore accortezza nel tesseramento dei calciatori, l’Ufficio
Tesseramenti Regionale è a disposizione delle società:
- Tesseramenti LND
- Tesseramenti Stranieri LND/SGS
- Tesseramenti SGS
0641603205 Tiziana Vettorel
0641603217 Morena Imperiale
0641603270 Patrizia Nitoglia
- CRL 18/2 -
1. SEGRETERIA
1.1. SVINCOLO CALCIATORI
RICHIESTE ACCOLTE
Svincolo per inattività del calciatore
Richieste presentate prima dell’inizio del Campionato/Torneo
COGNOME, NOME E DATA DI NASCITA
N. CARTELLINO
SOCIETÀ APPARTENENZA
ACCHIONI FILIPPO - 29/01/2002
191231
937698 - V.J.S. VELLETRI CALCIO
ADINOLFI GABRIELE - 19/02/1998
70710
937932 - PRO CALCIO CECCHINA
BERARDI ALESSIO - 21/01/1998
12195
651043 - URBETEVERE CALCIO
CAMPI LORENZO - 15/01/2000
1674
46910 - S.PAOLO OSTIENSE
CIALONI GIACOMO - 29/10/2001
168459
934625 - GDC PONTE DI NONA
CONFALONE TOMMASO - 26/06/1998
66761
935674 - AURELIO FIAMME AZZURRE
COVARELLI MANUEL - 27/11/2001
1438
651043 - URBETEVERE CALCIO
DI MAIO DIEGO - 19/01/2000
67419
935674 - AURELIO FIAMME AZZURRE
DONATO DANIELE - 07/07/2002
12444
937824 - VIGOR PERCONTI
ESCUDERO YURI - 07/06/2001
36054
933237 - SELVA DEI PINI POMEZIA
FORTUNA EMANUELE - 10/02/1999
205631
651135 - TOR DI QUINTO
FRANCIOSI ALESSANDRO - 19/10/2002
70508
937824 - VIGOR PERCONTI
FRATONI ALESSANDRO - 14/05/1998
65667
933897 - REAL MONTEROSI
GERLINI PIETRO - 20/12/2000
67432
935674 - AURELIO FIAMME AZZURRE
MARECHI ANGELO - 08/04/2000
122423
650952 - ANZIOLAVINIO
MINO FEDERICO - 14/05/1998
61196
935674 - AURELIO FIAMME AZZURRE
NARDI ALESSANDRO - 05/11/1999
87509
914263 - ATLETICO ACILIA A.R.L.
PERRI FEDERICO - 07/07/2001
28697
912063 - UNIPOMEZIA VIRTUS 1938
POGGETTI FEDERICO - 17/11/1998
67192
935674 - AURELIO FIAMME AZZURRE
RONDINA ANDREA - 21/12/2000
128186
651279 - VIGILI URBANI ROMA
SALVITTI GIANMARCO - 03/06/2001
14524
651137 - CINECITTA BETTINI S.R.L.
TAMBURELLO DE DOMINICIS VALERIO - 29/04/2001
1414
651043 - URBETEVERE CALCIO
TIMPANELLI ALESSIO - 01/06/2000
6852
68144 - ROMULEA A.S.D.
TORCHIA MATTEO - 02/02/2001
30158
930127 - VILLANOVA CALCIO
TORCHIO MATTEO - 06/12/2000
2142
651043 - URBETEVERE CALCIO
VITALIANO CRISTIAN DAVID - 27/02/1998
67193
935674 - AURELIO FIAMME AZZURRE
1.1.1. DEROGA GIOVANI CALCIATRICI
Si informa che il Settore Giovanile e Scolastico ha concesso le seguenti deroghe:
Autorizzazione a partecipare al TORNEO GIOVANISSIMI FASCIA B
BARONI VALENTINA
nata il 30/12/2000
POL.D. FREGENE
Autorizzazione a partecipare al TORNEO GIOVANISSIMI
CARUSO ARIANNA
nata il 06/11/1999
ASD RES ROMA
- CRL 18/3 -
2. VARIAZIONI AL PROGRAMMA GARE
VARIAZIONE ORARIO DI GIOCO
Per opportuna conoscenza delle Società interessate, si comunica che la Società ASD ATLETICO
2000 partecipante al Campionato ALLIEVI REGIONALI ECCELLENZA Girone “B” a partire da Domenica 5
Ottobre 2014 disputerà le proprie gare interne sul campo “CATENA M.” (sintex) di Roma (RM) sito in via di
Centocelle 100, con inizio alle ore 10.30
Per opportuna conoscenza delle Società interessate, si comunica che la Società ASD ATLETICO
2000 partecipante al Campionato GIOVANISSIMI REGIONALI ECCELLENZA Girone “A” a partire da
Domenica 28 settembre 2014 disputerà le proprie gare interne sul campo “CATENA M.” (sintex) di Roma
(RM) sito in via di Centocelle 100, con inizio alle ore 9.00
VARIAZIONE CAMPO DI GIOCO
Per opportuna conoscenza delle Società interessate, si comunica che la Società SSD CYNTHIA
1920 partecipante al Campionato ALLIEVI REGIONALI FASCIA B Girone “D” a partire da Sabato 11
Ottobre 2014 disputerà le proprie gare interne sul campo “IORIO.” (sintex) di Nemi (RM) sito in via dei Corsi
1, con inizio alle ore 15.00
Per opportuna conoscenza delle Società interessate, si comunica che la Società SSD CYNTHIA
1920 partecipante al Campionato GIOVANISSIMI REGIONALI Girone “D” a partire da Domenica 12
Ottobre 2014 disputerà le proprie gare interne sul campo “IORIO.” (sintex) di Nemi (RM) sito in via dei Corsi
1, con inizio alle ore 11.00
2.1.1. VARIAZIONI AL PROGRAMMA GARE DEL 28.09.2014
ALLIEVI REGIONALI ECCELLENZA
GIRONE B
ALBALONGA
ALMAS ROMA
FORTITUDO CALCIO ROMA
POLISPORTIVA CARSO
CAMPO
COMUNALE (SINTEX)
FUSO
(SINTEX)
DATA
ORA
28/09/14 10:30
28/09/14 11:00
2A PAVONA (ALBANO L)
2A CIAMPINO
GIOVANISSIMI REGIONALI ECCELLENZA
GIRONE A
ATLETICO 2000
RIETI
CAMPO
CATENA
(SINTEX)
DATA
28/09/14
ORA
09:00
02A
ROMA
- CRL 18/4 -
3. RISULTATI GARE
ALLIEVI REGIONALI FASCIA B
GIRONE: A
DATA GIORNATA
21/09/14 1/A AURELIO FIAMME AZZURRE
NUOVA TOR TRE TESTE
OSTIA MARE LIDOCALCIO SRL
ROMULEA A.S.D.
SPES MONTESACRO 1908
SPORTING CITTADIFIUMICINO
TOR DI QUINTO
TOR SAPIENZA S.R.L.
GIRONE: B
DATA GIORNATA
21/09/14 1/A ATLETICO 2000
FORTITUDO CALCIO ROMA FC
PALESTRINA 1919 SSARLD
POLISPORTIVA CARSO
PRO ROMA CALCIO A.S.D.
SAN LORENZO CALCIO S.R.L.
VIGILI URBANI ROMA
VIVACE GROTTAFERRATA
MONTEROTONDO CALCIO
VILLANOVA CALCIO
RIETI S.R.L.
MONTESPACCATO S.R.L.
LADISPOLI S.R.L.
CIVITAVECCHIA 1920
SAVIO S.R.L.
OTTAVIA
5
3
3
4
1
0
0
1
-
0
0
2
0
3
2
0
2
URBETEVERE CALCIO
LODIGIANI CALCIO
ALBALONGA
VIGOR PERCONTI
SAN DONATO PONTINO
ALMAS ROMA S.R.L.
FUTBOLCLUB S.R.L.
CERTOSA A.R.L.
0
0
1
1
3
1
0
1
-
2
0
3
2
0
0
3
0
GIOVANISSIMI REGIONALI ECCELLENZA
GIRONE: A
DATA GIORNATA
21/09/14 1/A GUIDONIA MONTECELIO
MONTEFIASCONE
MONTEROTONDO CALCIO
OSTIA MARE LIDOCALCIO SRL
PETRIANA
RIETI S.R.L.
SAVIO S.R.L.
TOR SAPIENZA S.R.L.
GIRONE: B
DATA GIORNATA
21/09/14 1/A ANZIOLAVINIO
CEPRANO CALCIO
CERTOSA A.R.L.
LODIGIANI CALCIO
POLISPORTIVA CARSO
ROMULEA A.S.D.
SAN DONATO PONTINO
VIGILI URBANI ROMA
SPES MONTESACRO 1908
URBETEVERE CALCIO
ATLETICO 2000
AURELIO FIAMME AZZURRE
D.L.F. CIVITAVECCHIA
VIGOR PERCONTI
VIS AURELIA S.R.L.
LADISPOLI S.R.L.
1 - 2
0 - 2
PR.RECL.
2 - 1
2 - 3
0 - 0
3 - 1
2 - 3
PALESTRINA 1919 SSARLD
PRO ROMA CALCIO A.S.D.
FUTBOLCLUB S.R.L.
FORTITUDO CALCIO ROMA FC
CITTA DI CIAMPINO
TOR DI QUINTO
NUOVA TOR TRE TESTE
ATLETICO FIDENE
2
1
1
2
0
0
1
1
-
0
1
5
1
0
3
1
1
- CRL 18/5 -
4. GIUDICE SPORTIVO
Il Giudice Sportivo, Ernesto Milia, assistito dal rappresentante dell’A.I.A., Domenico Briguglio nella seduta
del 24 marzo 2014, ha adottato le decisioni che di seguito integralmente si riportano:
CAMPIONATO ALLIEVI REGIONALI ECCELLENZA
GARE DEL 21/ 9/2014
PROVVEDIMENTI DISCIPLINARI
In base alle risultanze degli atti ufficiali sono state deliberate le seguenti sanzioni disciplinari.
A CARICO DI SOCIETA'
AMMENDA
Euro 50,00 RIETI S.R.L.
Perchè tesserato non identificato, a fine gara, colpiva con calci la porta dello spogliatoio riservato all'arbitro.
A CARICO DIRIGENTI
INIBIZIONE A SVOLGERE OGNI ATTIVITA' FINO AL 3/10/2014
VENERUSO ROSARIO
(VILLANOVA CALCIO)
Per proteste nei confronti dell'arbitro.
A CARICO DI ALLENATORI
SQUALIFICA PER UNA GARA EFFETTIVA
BELLATRECCIA SANDRO
(VIGILI URBANI ROMA)
Per proteste nei confronti dell'arbitro.
A CARICO CALCIATORI ESPULSI DAL CAMPO
SQUALIFICA PER DUE GARE EFFETTIVE
BAIA SIMONE
(ALMAS ROMA S.R.L.)
FERRARI ENRICO
(OSTIA MARE LIDOCALCIO SRL)
TOMEI MATTIA
(VILLANOVA CALCIO)
SQUALIFICA PER UNA GARA EFFETTIVA
MASSIMI PAOLO
(SAN LORENZO CALCIO S.R.L.)
- CRL 18/6 A CARICO CALCIATORI NON ESPULSI DAL CAMPO
SQUALIFICA PER DUE GARE
DOUABI YAMISSA AURELIEN
(RIETI S.R.L.)
Perchè a fine gara, rivolgeva all'arbitro espressione offensiva.
- CRL 18/7 -
CAMPIONATO GIOVANISSIMI REGIONALI ECCELLENZA
GARE DEL 21/ 9/2014
DECISIONI DEL GIUDICE SPORTIVO
PREANNUNCIO DI RECLAMO
MONTEROTONDO CALCIO - ATLETICO 2000
Preso atto del preannuncio di reclamo da parte della Società A.S.D.MONTEROTONDO CALCIO si soprassiede ad
ogni decisione in merito. Nel relativo paragrafo, di seguito, si riportano i provvedimenti disciplinari assunti a carico di
tesserati per quanto in atti.
PROVVEDIMENTI DISCIPLINARI
In base alle risultanze degli atti ufficiali sono state deliberate le seguenti sanzioni disciplinari.
A CARICO DIRIGENTI
INIBIZIONE A SVOLGERE OGNI ATTIVITA' FINO AL 3/10/2014
TRUNFIO COSTANTINO
(D.L.F. CIVITAVECCHIA)
Per proteste avverso decisioni arbitrali.
PECCI FABRIZIO
(VIGILI URBANI ROMA)
Per avere rivolto espressioni offensive all'allenatore della squadra avversaria.
A CARICO DI MASSAGGIATORI
AMMONIZIONE CON DIFFIDA
MARASCA ALESSANDRO
(CEPRANO CALCIO)
Per comportamento non regolamentare.
A CARICO DI ALLENATORI
SQUALIFICA PER UNA GARA EFFETTIVA
URAS PIETRO
(ATLETICO FIDENE)
Per avere rivolto espressione offensiva ad un dirigente della squadra avversaria.
A CARICO CALCIATORI ESPULSI DAL CAMPO
SQUALIFICA PER UNA GARA EFFETTIVA
STAZI GIAN MARCO
(AURELIO FIAMME AZZURRE)
KHALIDI SOUFIAN
(OSTIA MARE LIDOCALCIO SRL)
- CRL 18/8 -
1.1.1. Errata Corrige
Comunicato Ufficiale n° 14 dell’ 11/09/2014
4.1. SVINCOLO CALCIATORI
LEGGASI
RICHIESTE ACCOLTE
Svincolo per inattività del calciatore
Richieste presentate prima dell’inizio del Campionato/Torneo
COGNOME, NOME E DATA DI NASCITA
ARTURO NICHOLAS - 27/03/1998
N. CARTELLINO
30313
SOCIETÀ APPARTENENZA
930.127 – VILLANOVA CALCIO
ALLEGATI
¾
¾
¾
¾
¾
¾
¾
¾
Programma gare della 3ª
Programma gare della 1ª
Programma gare della 1ª
Programma gare della 1ª
Programma gare della 3ª
Programma gare della 1ª
Programma gare della 1ª
Programma gare della 1ª
giornata di ritorno della categoria Allievi Regionali Eccellenza
giornata di ritorno della categoria Allievi Regionali
giornata di ritorno della categoria Allievi Regionali Eccellenza Fascia B
giornata di ritorno della categoria Allievi Regionali Fascia B
giornata di ritorno della categoria Giovanissimi Regionali Eccellenza
giornata di ritorno della categoria Giovanissimi Regionali
giornata di ritorno della categoria Giovanissimi Regionali Ecc. Fascia B
giornata di ritorno della categoria Giovanissimi Regionali Fascia B
¾
Nuova composizione gironi:
Allievi Regionali Fascia B
Giovanissimi Regionali Fascia B
Giovanissimi Regionali
Giovanissimi Regionali
Gir. B
Gir. B
Gir. B
Gir. D
Le ammende comminate con il presente Comunicato Ufficiale devono essere versate al
Comitato Regionale Lazio entro e non oltre il 10 ottobre 2014
Pubblicato in Roma il 25 settembre 2014
IL SEGRETARIO
Claudio Galieti
IL PRESIDENTE
Melchiorre Zarelli
- CRL 18/9 CAMPIONATO
AE
GIORNATA
3
COMITATO LAZIO
ALLIEVI REGIONALI ECCELLENZA
ANDATA
* * * * E L E N C O
CAMPIONATO
AE
D E L L E
G A R E * * * *
ALLIEVI REGIONALI ECCELLENZA
-----------------------------------------------------------------------------------------------------------------------------------------------------------------------------------------------------GIRONE A
GIORNATA 3 ANDATA
-----------------------------------------------------------------------------------------------------------------------------------------------------------------------------------------------------1) NUOVA TOR TRE TESTE
SAVIO S.R.L.
370 IELASI ROBERTO"A"C.S. (SINTEX)
ROMA (PRENESTINO)
5/10/14 10:30
VIA GIUSEPPE CANDIANI 4
2) OSTIA MARE LIDOCALCIO SRL
CIVITAVECCHIA 1920
531 ANCO MARZIO
(SINTEX)
ROMA (OSTIA)
5/10/14 10:30
VIA GIOVANNI AMENDUNI 15
3) RIETI S.R.L.
VILLANOVA CALCIO
780 CICCAGLIONI ROBERTO
(SINTEX)
RIETI
5/10/14
9:00
VIA TERMINILLO, SNC
4) ROMULEA A.S.D.
AURELIO FIAMME AZZURRE
78 ROMA
(SINTEX)
ROMA (SAN GIOVANNI)
5/10/14 10:30
VIA FARSALO
5) SPES MONTESACRO 1908
MONTESPACCATO S.R.L.
382 SPES
(SINTEX)
ROMA (MONTESACRO)
5/10/14
9:00
VIA ATENEO SALESIANO 82
6) SPORTING CITTADIFIUMICINO
OTTAVIA
464 CETORELLI VINCENZO
(SINTEX)
FIUMICINO
5/10/14 10:30
VIA CONI ZUGNA 208/H
7) TOR DI QUINTO
LADISPOLI S.R.L.
87 TESTA VITTORIO "A"
(SINTEX)
ROMA (TOR DI QUINTO)
5/10/14 10:30
VIA DEL BAIARDO 25
8) TOR SAPIENZA S.R.L.
MONTEROTONDO CALCIO
9 COMUNALE ALBERINI
(SINTEX)
ROMA (COLLI ANIENE)
5/10/14 10:30
VIA DELI ALBERINI SNC
-----------------------------------------------------------------------------------------------------------------------------------------------------------------------------------------------------GIRONE B
GIORNATA 3 ANDATA
-----------------------------------------------------------------------------------------------------------------------------------------------------------------------------------------------------1) ATLETICO 2000
FUTBOLCLUB S.R.L.
285 CATENA MASSIMILIANO
(SINTEX)
ROMA (QUADRARO)
5/10/14 10:30
VIA DI CENTOCELLE 100
2) FORTITUDO CALCIO ROMA FC
VIGOR PERCONTI
685 OSTIENSE "A"
(TERRA)
ROMA (OSTIENSE)
5/10/14
9:00
LUNGOTEVERE DANTE 3/5
3) PALESTRINA 1919 SSARLD
POLISPORTIVA CARSO
37 POLIDORI ANDREA
(SINTEX)
PALESTRINA
5/10/14
9:00
VIA PEDEMONTANA 223
4) PRO ROMA CALCIO A.S.D.
CERTOSA A.R.L.
81 VITTIGLIO DANILO
(SINTEX)
ROMA (PRENESTINO)
5/10/14 11:00
VIA VERRIO FLACCO 41
5) SAN DONATO PONTINO
ALMAS ROMA S.R.L.
324 GINNETTI BARTOLOMEO
(ERBA)
SABAUDIA (BORGO SAN DONATO)
5/10/14 10:30
VIA MIGLIARA 47
6) SAN LORENZO CALCIO S.R.L.
URBETEVERE CALCIO
103 CINECITTA' DUE
(SINTEX)
ROMA (CINECITTA)
5/10/14 10:30
VIA QUINTO PUBLICIO 39
7) VIGILI URBANI ROMA
ALBALONGA
304 TOBIA MARIO
(SINTEX)
ROMA (OSTIENSE)
5/10/14 10:30
LUNGOTEVERE DANTE 311
8) VIVACE GROTTAFERRATA
LODIGIANI CALCIO
89 COMUNALE
(SINTEX)
GROTTAFERRATA
5/10/14
9:00
VIA DEGLI ULIVI 1
- CRL 18/10 CAMPIONATO
AR
GIORNATA
1
COMITATO LAZIO
ALLIEVI REGIONALI
ANDATA
* * * * E L E N C O
CAMPIONATO
D E L L E
AR
G A R E * * * *
ALLIEVI REGIONALI
-----------------------------------------------------------------------------------------------------------------------------------------------------------------------------------------------------GIRONE A
GIORNATA 1 ANDATA
-----------------------------------------------------------------------------------------------------------------------------------------------------------------------------------------------------1) ASTREA
VITERBESE CASTRENSE SRL
1 CASAL DEL MARMO
(ERBA)
ROMA (CASAL DEL MARMO)
5/10/14 10:30
VIA GIUSEPPE BARELLAI 135
2) BOREALE A.S.D.
FREGENE
1520 IL TRIFOGLIO "A"
(ERBA)
ROMA (TOR DI QUINTO)
5/10/14 10:30
VIALE DI TOR DI QUINTO 57/B
3) D.L.F. CIVITAVECCHIA
PIANOSCARANO 1949
380 DOPOLAVORO FERROVIARIO(SINTEX)
CIVITAVECCHIA
5/10/14
9:30
VIALE GUIDO BACCELLI 204
4) MASSIMINA
G. CASTELLO
820 SAN GABRIELE
(TERRA)
ROMA (MASSIMINA)
5/10/14 11:15
VIA CASAL LUMBROSO 21
5) OLIMPIA
REAL MONTEROSI
72 BACHELET VITTORIO
(SINTEX)
ROMA (GIANICOLENSE)
5/10/14
9:00
VIA VITELLIA 50
6) POLISPORTIVA DE ROSSI ARL
SANSA F.C.
155 DE ROSSI
(SINTEX)
ROMA (APPIO LATINO)
5/10/14 10:30
VIA DI VIGNA FABBRI SNC
7) TUSCIA FOGLIANESE
FOOTBALL CLUB CASALOTTI
127 SAN PAOLO
(ERBA)
VETRALLA (CURA DI VETRALLA)
5/10/14 10:00
VIA SANT'ANGELO SNC
8) VIRTUS LADISPOLI
MONTEFIASCONE
469 LOMBARDI ANGELO
(SINTEX)
LADISPOLI (MARINA DI S.NICOLA)
5/10/14
9:00
VIA DELLA LUNA SNC
-----------------------------------------------------------------------------------------------------------------------------------------------------------------------------------------------------GIRONE B
GIORNATA 1 ANDATA
-----------------------------------------------------------------------------------------------------------------------------------------------------------------------------------------------------1) ATLETICO FIDENE
ACQUACETOSA CENTRO CALCIO
527 MONTESACRO
(SINTEX)
ROMA (NOMENTANA)
5/10/14
9:00
VIA NOMENTANA 858
2) CALCIO SAN CESAREO
FIANO ROMANO
241 PERA R. "B"
(SINTEX)
SAN CESAREO
5/10/14 11:00
VIA DEL CAMPO SPORTIVO 2
3) CASILINA B.C.C.R.
ACCADEMIA CALCIO ROMA
287 DE FONSECA
(SINTEX)
ROMA (CASILINA)
5/10/14
9:00
VIA MANDANICI 98
4) CIRCOLO GUARDIADIFINANZA
LA SABINA
721 CENTRO LOGISTICO GDF
(ERBA)
ROMA (SALARIO)
5/10/14
9:00
VIA CASTIGLION FIORENTINO 40/5
5) COLLEFERRO CALCIO
CITTA DI CIAMPINO
43 CASLINI ANDREA
(SINTEX)
COLLEFERRO
5/10/14 11:00
VIA BERNI SNC
6) GIARDINETTI
REAL TOR SAPIENZA
166 SBARDELLA AGAPITO
(SINTEX)
ROMA (GIARDINETTI)
5/10/14
9:00
VIA DEI RUDERI DI TORRENOVA 2
7) SPORTING RIETI
LIBERTAS CENTOCELLE
133 VECCHIARELLI IPPOLITO
(ERBA)
RIETI (VILLA REATINA)
5/10/14 15:30
VIA CAMPOLONIANO SNC
8) VILLALBA OCRES MOCA
CITTA DI MONTEROTONDO
30 OCRES MOCA
(ERBA)
GUIDONIA MONTECELIO (VILLALBA
5/10/14 11:00
VIA PANTANE 9/11
-----------------------------------------------------------------------------------------------------------------------------------------------------------------------------------------------------GIRONE C
GIORNATA 1 ANDATA
-----------------------------------------------------------------------------------------------------------------------------------------------------------------------------------------------------1) CYNTHIA 1920 S.R.L.
CLE.M.BO.FA.L
1320 IORIO LUCIANO
(SINTEX)
NEMI (LE COLOMBE)
5/10/14 11:00
VIA DEI CORSI
2) EUR TRE FONTANE CALCIO
S.PAOLO OSTIENSE
282 FIORINI GUGLIELMO
(SINTEX)
ROMA (GARBATELLA)
5/10/14
9:00
VIA COSTANTINO 5
3) N.SANTA MARIA MOLE MARINO
V.J.S. VELLETRI CALCIO
187 FERRARIS ATTILIO
(SINTEX)
MARINO (S.MARIA DELLE MOLE)
5/10/14
9:00
VIALE DELLA REPUBBLICA 4
4) PESCATORI OSTIA
ANZIOLAVINIO
245 LODOVICHETTI ALESSANDRO (ERBA)
ROMA (OSTIA LIDO)
5/10/14 11:00
VIA BRIGANTINI 7
5) REAL TUSCOLANO CLUB
VIS AURELIA S.R.L.
97 MOSCARELLI MARCO
(TERRA)
ROMA (TUSCOLANO)
5/10/14 10:30
VIA SELINUNTE 87
6) TOTTI S.S.
FONTE MERAVIGLIOSA
827 LONGARINA 7
(SINTEX)
ROMA (OSTIA ANTICA)
5/10/14 10:30
VIA PERNIER 92
7) VIRTUS DIVINO AMORE
TIME SPORT ROMA SSD ARL
185 MILLEVOI ANDREA "A"
(ERBA)
ROMA (DIVINO AMORE)
5/10/14 11:00
VIA ARDEATINA KM. 12.800
8) VIRTUS NETTUNO
FRASCATI
596 RICCI MIRKO
(TERRA)
NETTUNO (TRE CANCELLI)
5/10/14
9:00
VIA PISCINA TRE CANCELLI SNC
- CRL 18/11 -----------------------------------------------------------------------------------------------------------------------------------------------------------------------------------------------------GIRONE D
GIORNATA 1 ANDATA
-----------------------------------------------------------------------------------------------------------------------------------------------------------------------------------------------------1) CALCIO SEZZE
NUOVA ITRI
684 LE FONTANELLE
(TERRA)
SEZZE
5/10/14
9:00
VIA BASSIANO
SNC
2) CASTELLIRI 1971
SERMONETA CALCIO
201 SAN LORENZO
(TERRA)
CASTELLIRI
5/10/14 11:00
VIA PANTANO 12
3) CEPRANO CALCIO
SS. PIETRO E PAOLO
192 COMUNALE
(SINTEX)
CEPRANO
5/10/14
9:00
VIA CORNETE SNC
4) FONDI CALCIO S.R.L.
CASSIO CLUB
991 MADONNA DEGLI ANGELI (SINTEX)
FONDI (MADONNA DEGLI ANGELI)
5/10/14 10:30
VIA PONTE GAGLIARDO
5) PRO CISTERNA 1926
ROCCASECCA T.SAN TOMMASO
17 BARTOLANI DOMENICO
(SINTEX)
CISTERNA DI LATINA
5/10/14 10:00
VIA LOMBARDIA 1
6) PROCALCIO FERENTINO
APRILIA S.R.L.
713 FRAIEGARI G.
(SINTEX)
PIGLIO
5/10/14 11:00
VIA TORRETTA SNC
7) REAL PIEDIMONTE S GERMANO
CITTA DI MINTURNOMARINA
203 CIRILLO SAVERIO "A"
(ERBA)
PIEDIMONTE SAN GERMANO
5/10/14
9:00
VIA D'AGUANNO C. SNC
8) SANTI COSMA E DAMIANO
CASSINO CALCIO 1924
676 AUSENTE
(TERRA)
SANTI COSMA E DAMIANO (CERRO)
5/10/14 10:00
VIA AUSENTE SNC
CAMPIONATO
AX
GIORNATA
1
COMITATO LAZIO
ALLIEVI RG.ECCELLENZA FASCIA B
ANDATA
* * * * E L E N C O
CAMPIONATO
AX
D E L L E
G A R E * * * *
ALLIEVI REGIONALI ECCELLENZA FASCIA B
-----------------------------------------------------------------------------------------------------------------------------------------------------------------------------------------------------GIRONE A
GIORNATA 1 ANDATA
-----------------------------------------------------------------------------------------------------------------------------------------------------------------------------------------------------1) APRILIA S.R.L.
VIGOR PERCONTI
514 CI.MA.NUOVO PRIMAVERA (SINTEX)
APRILIA
4/10/14 18:00
VIA DELLE VALLI 39
2) ATLETICO 2000
POLISPORTIVA DE ROSSI ARL
285 CATENA MASSIMILIANO
(SINTEX)
ROMA (QUADRARO)
4/10/14 15:00
VIA DI CENTOCELLE 100
3) POMEZIA CALCIO
ANZIOLAVINIO
70 COMUNALE
(SINTEX)
POMEZIA
4/10/14 15:00
VIA VARRONE 15
4) ROMULEA A.S.D.
LADISPOLI S.R.L.
78 ROMA
(SINTEX)
ROMA (SAN GIOVANNI)
4/10/14 14:45
VIA FARSALO
5) S.PAOLO OSTIENSE
CIVITAVECCHIA 1920
488 SAN PAOLO OSTIENSE
(SINTEX)
ROMA (SAN PAOLO)
4/10/14 17:15
VIALE DI SAN PAOLO 12
6) SAVIO S.R.L.
OSTIA MARE LIDOCALCIO SRL
368 VIANELLO RAIMONDO
(SINTEX)
ROMA (PRENESTINO)
4/10/14 17:00
VIA NORMA 5
7) URBETEVERE CALCIO
AURELIO FIAMME AZZURRE
161 URBETEVERE "A"
(SINTEX)
ROMA (LA PISANA)
4/10/14 16:00
VIA DELLA PISANA 379
-----------------------------------------------------------------------------------------------------------------------------------------------------------------------------------------------------GIRONE B
GIORNATA 1 ANDATA
-----------------------------------------------------------------------------------------------------------------------------------------------------------------------------------------------------1) ACCADEMIA CALCIO ROMA
RIETI S.R.L.
540 ACADEMY SPORT CENTER (SINTEX)
ROMA (BUFALOTTA)
4/10/14 16:45
VIA DI SETTEBAGNI 340
2) FORTITUDO CALCIO ROMA FC
SAN LORENZO CALCIO S.R.L.
268 OSTIENSE "B"
(TERRA)
ROMA (OSTIENSE)
4/10/14 15:00
LUNGOTEVERE DANTE 3
3) FUTBOLCLUB S.R.L.
VIGILI URBANI ROMA
386 FUTBOLCLUB CAMPUS
(SINTEX)
ROMA (TOR DI QUINTO)
4/10/14 15:00
VIA DEL BAIARDO SNC
4) LODIGIANI CALCIO
LAZIO S.P.A.
277 LA BORGHESIANA "C"
(SINTEX)
ROMA (BORGHESIANA)
4/10/14 15:00
VIA DELLA CAPANNA MURATA 120
5) MONTEFIASCONE
CERTOSA A.R.L.
825 COMUNALE FONTANELLE N°2(TERRA)
MONTEFIASCONE (FONTANELLE)
4/10/14 15:00
VIA GIUSEPPE CONTADINI, SNC
6) NUOVA TOR TRE TESTE
TOR DI QUINTO
370 IELASI ROBERTO"A"C.S. (SINTEX)
ROMA (PRENESTINO)
4/10/14 15:00
VIA GIUSEPPE CANDIANI 4
7) VILLANOVA CALCIO
PRO ROMA CALCIO A.S.D.
98 FERRARIS ATTILIO
(SINTEX)
GUIDONIA MONTECELIO-(VILLANOVA
4/10/14 17:00
VIA UMBERTO I, 3
- CRL 18/12 CAMPIONATO
AS
GIORNATA
1
COMITATO LAZIO
ALLIEVI REGIONALI FASCIA B
ANDATA
* * * * E L E N C O
CAMPIONATO
AS
D E L L E
G A R E * * * *
ALLIEVI REGIONALI FASCIA B
-----------------------------------------------------------------------------------------------------------------------------------------------------------------------------------------------------GIRONE A
GIORNATA 1 ANDATA
-----------------------------------------------------------------------------------------------------------------------------------------------------------------------------------------------------1) ATLETICO ACILIA A.R.L.
PETRIANA
584 SAN GIORGIO ACILIA
(TERRA)
ROMA (ACILIA)
4/10/14 15:00
VIA DI SAPONARA 242
2) D.L.F. CIVITAVECCHIA
MASSIMINA
380 DOPOLAVORO FERROVIARIO(SINTEX)
CIVITAVECCHIA
4/10/14 15:00
VIALE GUIDO BACCELLI 204
3) FREGENE
VITERBESE CASTRENSE SRL
6 PAGLIALUNGA ARISTIDE (SINTEX)
FIUMICINO (FREGENE)
4/10/14 17:00
VIA FERTILIA 52
4) OLIMPIA
PIANOSCARANO 1949
72 BACHELET VITTORIO
(SINTEX)
ROMA (GIANICOLENSE)
4/10/14 18:00
VIA VITELLIA 50
5) REAL MONTEROSI
COR 2005
120 MARTONI MARCELLO
(SINTEX)
MONTEROSI
4/10/14 15:00
VIA DELLO SPORT
6) SPORTING CITTADIFIUMICINO
GRIFONE MONTEVERDE
464 CETORELLI VINCENZO
(SINTEX)
FIUMICINO
4/10/14 16:30
VIA CONI ZUGNA 208/H
7) VIS AURELIA S.R.L.
CITTA DI CERVETERI
45 CECCACCI MARIO
(TERRA
ROMA (PINETA SACCHETTI)
4/10/14 17:00
VIA GIOACCHINO VENTURA 54
-----------------------------------------------------------------------------------------------------------------------------------------------------------------------------------------------------GIRONE B
GIORNATA 1 ANDATA
-----------------------------------------------------------------------------------------------------------------------------------------------------------------------------------------------------1) ACHILLEA 2002
CIRCOLO GUARDIADIFINANZA
144 TALENTI
(TERRA)
ROMA (MONTESACRO)
4/10/14 15:00
VIA SIBILLA ALERAMO 29
2) CASTELVERDE CALCIO ARL
SPES MONTESACRO 1908
303 MANUALI MARIO
(SINTEX)
ROMA (CASTELVERDE - LUNGHEZZA)
5/10/14 11:00
VIA CIVITELLA CASANOVA
3) FONTE NUOVA
C.S.V. BREDA S.S.D.R.L.
24 COMUNALE
(SINTEX)
FONTE NUOVA
5/10/14 11:00
VIA GIOBERTI SNC
4) GIARDINETTI
LA SABINA
166 SBARDELLA AGAPITO
(SINTEX)
ROMA (GIARDINETTI)
4/10/14 15:00
VIA DEI RUDERI DI TORRENOVA 2
5) MONTESPACCATO S.R.L.
FIANO ROMANO
10 MONTESPACCATO
(SINTEX)
ROMA (MONTESPACCATO)
4/10/14 16:45
VIA STEFANO VAJ 41
6) OTTAVIA
BOREALE A.S.D.
244 DI MARCO IVO
(TERRA)
ROMA (OTTAVIA)
4/10/14 15:00
VIA DELLE CANOSSIANE 10
7) TIRRENO
ATLETICO FIDENE
624 STADIO DEI FERROVIERI (TERRA)
ROMA (FIDENE)
5/10/14 11:00
VIA DI VILLA SPADA 64
-----------------------------------------------------------------------------------------------------------------------------------------------------------------------------------------------------GIRONE C
GIORNATA 1 ANDATA
-----------------------------------------------------------------------------------------------------------------------------------------------------------------------------------------------------1) ALBALONGA
SAN DONATO PONTINO
44 PIO XII
(ERBA)
ALBANO LAZIALE
4/10/14 16:45
PIAZZA MONS.C.GUERRUCCI,SNC
2) CENTRO SPORTIVO PRIMAVERA
RACING CLUB S.T.
514 CI.MA.NUOVO PRIMAVERA (SINTEX)
APRILIA
4/10/14 16:15
VIA DELLE VALLI 39
3) FONTE MERAVIGLIOSA
POLISPORTIVA CARSO
275 FONTE PARK
(SINTEX)
ROMA (FONTE MERAVIGLIOSA)
4/10/14 15:00
VIA VINCENZO DRAGO SNC
4) GARBATELLA
PRO CISTERNA 1926
613 PICARELLA ROCCO
(SINTEX)
ROMA (PONTE MARCONI)
4/10/14 15:00
VIA MARIO AGENO SNC
5) N.SANTA MARIA MOLE MARINO
SERMONETA CALCIO
187 FERRARIS ATTILIO
(SINTEX)
MARINO (S.MARIA DELLE MOLE)
4/10/14 17:00
VIALE DELLA REPUBBLICA 4
6) SELVA DEI PINI POMEZIA
G. CASTELLO
894 SPORT'S CAMPUS
(SINTEX)
POMEZIA
4/10/14 18:00
VIA PONTINA KM 31.400
7) TOR DE CENCI
VIRTUS NETTUNO
102 MANCINI ANZIO
(TERRA)
ROMA (TOR DE CENCI)
4/10/14 15:00
VIA PONTINIA 605
-----------------------------------------------------------------------------------------------------------------------------------------------------------------------------------------------------GIRONE D
GIORNATA 1 ANDATA
-----------------------------------------------------------------------------------------------------------------------------------------------------------------------------------------------------1) CALCIO SAN CESAREO
CYNTHIA 1920 S.R.L.
241 PERA R. "B"
(SINTEX)
SAN CESAREO
4/10/14 15:00
VIA DEL CAMPO SPORTIVO 2
2) CEPRANO CALCIO
COLLEFERRO CALCIO
192 COMUNALE
(SINTEX)
CEPRANO
4/10/14 17:00
VIA CORNETE SNC
3) CITTA DI CIAMPINO
REAL TUSCOLANO CLUB
710 SUPERGA
(SINTEX)
CIAMPINO
4/10/14 16:30
VIA SUPERGA SNC
4) GIOC COCCIANO FRASCATI
CENTRO CALCIO ROSSONERO
173 AMADEI AMEDEO
(SINTEX)
FRASCATI
4/10/14 16:30
VIA CONTI DI TUSCOLO 6
5) PALESTRINA 1919 SSARLD
REAL TOR SAPIENZA
37 POLIDORI ANDREA
(SINTEX)
PALESTRINA
4/10/14 15:00
VIA PEDEMONTANA 223
6) TOR SAPIENZA S.R.L.
LIBERTAS CENTOCELLE
9 COMUNALE ALBERINI
(SINTEX)
ROMA (COLLI ANIENE)
4/10/14 15:00
VIA DELI ALBERINI SNC
7) VIVACE GROTTAFERRATA
ALMAS ROMA S.R.L.
89 COMUNALE
(SINTEX)
GROTTAFERRATA
4/10/14 16:30
VIA DEGLI ULIVI 1
- CRL 18/13 CAMPIONATO
GE
GIORNATA
3
COMITATO LAZIO
GIOVAN.MI REGIONALE ECCELLENZA
ANDATA
* * * * E L E N C O
CAMPIONATO
GE
D E L L E
G A R E * * * *
GIOVANISSIMI REGIONALI ECCELLENZA
-----------------------------------------------------------------------------------------------------------------------------------------------------------------------------------------------------GIRONE A
GIORNATA 3 ANDATA
-----------------------------------------------------------------------------------------------------------------------------------------------------------------------------------------------------1) AURELIO FIAMME AZZURRE
ATLETICO 2000
227 DON CALABRIA "B"
(SINTEX)
ROMA (PRIMAVALLE)
5/10/14
9:00
VIA GIAN BATTISTA SORIA 17
2) GUIDONIA MONTECELIO
VIS AURELIA S.R.L.
7 COMUNALE
(SINTEX)
GUIDONIA MONTECELIO
5/10/14
9:00
VIA DEL CAMPO SPORTIVO SNC
3) MONTEFIASCONE
SPES MONTESACRO 1908
825 COMUNALE FONTANELLE N°2(TERRA)
MONTEFIASCONE (FONTANELLE)
5/10/14
9:00
VIA GIUSEPPE CONTADINI, SNC
4) MONTEROTONDO CALCIO
URBETEVERE CALCIO
631 CECCONI FAUSTO
(SINTEX)
MONTEROTONDO
5/10/14
9:00
VIA DELLO STADIO 46
5) OSTIA MARE LIDOCALCIO SRL
D.L.F. CIVITAVECCHIA
531 ANCO MARZIO
(SINTEX)
ROMA (OSTIA)
5/10/14
9:00
VIA GIOVANNI AMENDUNI 15
6) PETRIANA
LADISPOLI S.R.L.
384 GELSOMINO "A"
(SINTEX)
ROMA (AURELIO)
5/10/14 11:30
VIA SANTA MARIA MEDIATRICE 24
7) SAVIO S.R.L.
RIETI S.R.L.
368 VIANELLO RAIMONDO
(SINTEX)
ROMA (PRENESTINO)
5/10/14 10:30
VIA NORMA 5
8) TOR SAPIENZA S.R.L.
VIGOR PERCONTI
9 COMUNALE ALBERINI
(SINTEX)
ROMA (COLLI ANIENE)
5/10/14
9:00
VIA DELI ALBERINI SNC
-----------------------------------------------------------------------------------------------------------------------------------------------------------------------------------------------------GIRONE B
GIORNATA 3 ANDATA
-----------------------------------------------------------------------------------------------------------------------------------------------------------------------------------------------------1) ANZIOLAVINIO
ATLETICO FIDENE
568 BORGHESE VITTORIA
(TERRA)
ANZIO (LAVINIO)
5/10/14
9:00
VIA DEI GAROFANI 1
2) CEPRANO CALCIO
PALESTRINA 1919 SSARLD
192 COMUNALE
(SINTEX)
CEPRANO
5/10/14 10:30
VIA CORNETE SNC
3) CERTOSA A.R.L.
NUOVA TOR TRE TESTE
92 CERTOSA
(SINTEX)
ROMA (CENTOCELLE)
5/10/14
9:00
VIA DI CENTOCELLE 146
4) CITTA DI CIAMPINO
PRO ROMA CALCIO A.S.D.
710 SUPERGA
(SINTEX)
CIAMPINO
5/10/14 11:00
VIA SUPERGA SNC
5) LODIGIANI CALCIO
FUTBOLCLUB S.R.L.
277 LA BORGHESIANA "C"
(SINTEX)
ROMA (BORGHESIANA)
5/10/14
9:00
VIA DELLA CAPANNA MURATA 120
6) POLISPORTIVA CARSO
FORTITUDO CALCIO ROMA FC
306 COMUNALE
(TERRA)
LATINA (BORGO CARSO)
5/10/14
9:00
VIA SALLUSTIO SNC
7) ROMULEA A.S.D.
SAN DONATO PONTINO
78 ROMA
(SINTEX)
ROMA (SAN GIOVANNI)
5/10/14
9:00
VIA FARSALO
8) VIGILI URBANI ROMA
TOR DI QUINTO
304 TOBIA MARIO
(SINTEX)
ROMA (OSTIENSE)
5/10/14
9:00
LUNGOTEVERE DANTE 311
- CRL 18/14 CAMPIONATO
GR
GIORNATA
1
COMITATO LAZIO
REGIONALE GIOVANISSIMI
ANDATA
* * * * E L E N C O
CAMPIONATO
GR
D E L L E
G A R E * * * *
REGIONALE GIOVANISSIMI
-----------------------------------------------------------------------------------------------------------------------------------------------------------------------------------------------------GIRONE A
GIORNATA 1 ANDATA
-----------------------------------------------------------------------------------------------------------------------------------------------------------------------------------------------------1) CIVITAC. CALCIO GIOVANILE
VIRTUS LADISPOLI
680 CASCIANI F.E BACCANARI A(TERRA
CIVITA CASTELLANA
5/10/14
9:00
VIA ENRICO MINIO S.N.C.
2) CIVITAVECCHIA 1920
PIANOSCARANO 1949
686 TAMAGNINI VITTORIO
(SINTEX)
CIVITAVECCHIA (CAMPO DELL'ORO)
5/10/14 10:45
LARGO MARTIRI DI VIA FANI SNC
3) CORNETO TARQUINIA
EUR TRE FONTANE CALCIO
111 BONELLI LIVIANO
(SINTEX)
TARQUINIA
5/10/14
9:00
VIA RAFFAELLO SANZIO SNC
4) MASSIMINA
COR 2005
820 SAN GABRIELE
(TERRA)
ROMA (MASSIMINA)
5/10/14
9:00
VIA CASAL LUMBROSO 21
5) S.PAOLO OSTIENSE
SANSA F.C.
488 SAN PAOLO OSTIENSE
(SINTEX)
ROMA (SAN PAOLO)
5/10/14
9:00
VIALE DI SAN PAOLO 12
6) SPORTING CITTADIFIUMICINO
REAL MONTEROSI
464 CETORELLI VINCENZO
(SINTEX)
FIUMICINO
5/10/14
9:00
VIA CONI ZUGNA 208/H
7) TOTTI S.S.
PALOCCO
827 LONGARINA 7
(SINTEX)
ROMA (OSTIA ANTICA)
5/10/14
9:00
VIA PERNIER 92
8) VITERBESE CASTRENSE SRL
PESCATORI OSTIA
213 COMUNALE
(ERBA)
BLERA (PUNTONI)
5/10/14
9:00
LOCALITA' PUNTONI
-----------------------------------------------------------------------------------------------------------------------------------------------------------------------------------------------------GIRONE B
GIORNATA 1 ANDATA
-----------------------------------------------------------------------------------------------------------------------------------------------------------------------------------------------------1) ACCADEMIA CALCIO ROMA
SPORTING RIETI
540 ACADEMY SPORT CENTER (SINTEX)
ROMA (BUFALOTTA)
5/10/14 15:00
VIA DI SETTEBAGNI 340
2) C.S.V. BREDA S.S.D.R.L.
VILLANOVA CALCIO
305 BREDA
(SINTEX)
ROMA (VILLAGGIO BREDA)
5/10/14
9:30
VIA ERCOLE MARELLI 29
3) FIANO ROMANO
BOREALE A.S.D.
626 VECCHIO COMUNALE
(SINTEX)
FIANO ROMANO
5/10/14 10:00
VIA DELLO SPORT SNC
4) FONTE NUOVA
CASTELVERDE CALCIO ARL
24 COMUNALE
(SINTEX)
FONTE NUOVA
5/10/14
9:00
VIA GIOBERTI SNC
5) MONTESPACCATO S.R.L.
ACQUACETOSA CENTRO CALCIO
10 MONTESPACCATO
(SINTEX)
ROMA (MONTESPACCATO)
5/10/14
9:00
VIA STEFANO VAJ 41
6) OTTAVIA
KOLBE PONTE MAMMOLO A.S.D
244 DI MARCO IVO
(TERRA)
ROMA (OTTAVIA)
5/10/14
9:00
VIA DELLE CANOSSIANE 10
7) REAL TOR SAPIENZA
GIARDINETTI
57 CASTELLI GIORGIO
(SINTEX)
ROMA (TOR SAPIENZA)
5/10/14
9:30
VIA FELICE DE ANDREIS 29/31
8) VILLALBA OCRES MOCA
OLIMPIA
30 OCRES MOCA
(ERBA)
GUIDONIA MONTECELIO (VILLALBA
5/10/14
9:00
VIA PANTANE 9/11
-----------------------------------------------------------------------------------------------------------------------------------------------------------------------------------------------------GIRONE C
GIORNATA 1 ANDATA
-----------------------------------------------------------------------------------------------------------------------------------------------------------------------------------------------------1) ANAGNI CALCIO
CASTELLIRI 1971
31 DEL BIANCO ROBERTO
(ERBA)
ANAGNI
5/10/14 16:30
VIA SAN MAGNO SNC
2) CALCIO SAN CESAREO
VIVACE GROTTAFERRATA
241 PERA R. "B"
(SINTEX)
SAN CESAREO
5/10/14
9:00
VIA DEL CAMPO SPORTIVO 2
3) CASAMARI VEROLI
PROCALCIO FERENTINO
379 CEREATE CASAMARI
(TERRA)
VEROLI (CASAMARI)
5/10/14
9:30
VIA SCIOFELLI SNC
4) GARBATELLA
CENTRO CALCIO ROSSONERO
613 PICARELLA ROCCO
(SINTEX)
ROMA (PONTE MARCONI)
5/10/14
9:00
VIA MARIO AGENO SNC
5) QUADRARO CINECITTA
GDC PONTE DI NONA
240 GERINI QUADRARO
(TERRA)
ROMA (TUSCOLANO)
5/10/14
9:00
VIA DEL QUADRARO 311
6) ROCCASECCA T.SAN TOMMASO
LIBERTAS CENTOCELLE
194 MANDRELLE
(TERRA)
COLFELICE
5/10/14
9:30
VIA MANDRELLE SNC
7) SAN LORENZO CALCIO S.R.L.
ALMAS ROMA S.R.L.
103 CINECITTA' DUE
(SINTEX)
ROMA (CINECITTA)
5/10/14
9:00
VIA QUINTO PUBLICIO 39
8) SPORT IS LIFE SAN DONATO
FRASCATI
498 LORD CHARLES FORTE
(TERRA)
CASALATTICO (LA VALLE)
5/10/14 10:30
LOCALITA LA VALLE
- CRL 18/15 -----------------------------------------------------------------------------------------------------------------------------------------------------------------------------------------------------GIRONE D
GIORNATA 1 ANDATA
-----------------------------------------------------------------------------------------------------------------------------------------------------------------------------------------------------1) APRILIA S.R.L.
CYNTHIA 1920 S.R.L.
514 CI.MA.NUOVO PRIMAVERA (SINTEX)
APRILIA
5/10/14
9:00
VIA DELLE VALLI 39
2) BORGO PODGORA 1950
VIRTUS NETTUNO
313 BONGIORNO PIETRO "A"
(ERBA)
LATINA (BORGO PODGORA)
5/10/14
9:30
VIA GALILEO GALILEI SNC
3) CENTRO SPORTIVO PRIMAVERA
PONTINIA
514 CI.MA.NUOVO PRIMAVERA (SINTEX)
APRILIA
5/10/14 10:30
VIA DELLE VALLI 39
4) CITTA DI NETTUNO
CALCIO SEZZE
278 DE FRANCESCHI FILIBERTO(TERRA)
NETTUNO
5/10/14
9:30
VIA LOMBARDIA 48
5) DON BOSCO GAETA A.S.D.
CITTA DI MINTURNOMARINA
360 ANELLINO FRANCESCO
(TERRA)
GAETA (SAN CARLO)
5/10/14
9:00
VIA LUNGOMARE CABOTO SNC
6) FORTITUDO VELLETRI 1986
PRO CISTERNA 1926
82 SCAVO GIOVANNI "B"
(SINTEX)
VELLETRI
5/10/14
9:00
VIA DEL CAMPO SPORTIVO SNC
7) SELVA DEI PINI POMEZIA
ALBALONGA
894 SPORT'S CAMPUS
(SINTEX)
POMEZIA
5/10/14
9:30
VIA PONTINA KM 31.400
8) SERMONETA CALCIO
RACING CLUB S.T.
326 CAETANI CAMILLO
(ERBA)
SERMONETA
5/10/14 10:30
VIA MADONNA DELLE GRAZIE
- CRL 18/16 CAMPIONATO
GX
GIORNATA
1
COMITATO LAZIO
GIOV.SIMI RG. ECCELL. FASCIA B
ANDATA
CAMPIONATO
* * * * E L E N C O
GX
D E L L E
G A R E * * * *
GIOVANISSIMI REGIONALI ECCELLENZA FASCIA B
-----------------------------------------------------------------------------------------------------------------------------------------------------------------------------------------------------GIRONE A
GIORNATA 1 ANDATA
-----------------------------------------------------------------------------------------------------------------------------------------------------------------------------------------------------1) AURELIO FIAMME AZZURRE
UNIPOMEZIA VIRTUS 1938
227 DON CALABRIA "B"
(SINTEX)
ROMA (PRIMAVALLE)
4/10/14 15:00
VIA GIAN BATTISTA SORIA 17
2) LADISPOLI S.R.L.
URBETEVERE CALCIO
614 MARTINI MARESCOTTI
(TERRA)
LADISPOLI
4/10/14 16:45
VIA DEL CAMPO SPORTIVO 1
3) LAZIO S.P.A.
ATLETICO 2000
131 GENTILI "A"
(SINTEX)
ROMA (LA GIUSTINIANA)
4/10/14 15:00
VIA VITTORIO TRUCCHI 15
4) MASSIMINA
NUOVA TOR TRE TESTE
820 SAN GABRIELE
(TERRA)
ROMA (MASSIMINA)
4/10/14 15:00
VIA CASAL LUMBROSO 21
5) OSTIA MARE LIDOCALCIO SRL
VIGOR PERCONTI
531 ANCO MARZIO
(SINTEX)
ROMA (OSTIA)
4/10/14 16:45
VIA GIOVANNI AMENDUNI 15
6) ROMULEA A.S.D.
TOTTI S.S.
78 ROMA
(SINTEX)
ROMA (SAN GIOVANNI)
4/10/14 16:15
VIA FARSALO
7) VIGILI URBANI ROMA
MONTEFIASCONE
304 TOBIA MARIO
(SINTEX)
ROMA (OSTIENSE)
4/10/14 16:45
LUNGOTEVERE DANTE 311
-----------------------------------------------------------------------------------------------------------------------------------------------------------------------------------------------------GIRONE B
GIORNATA 1 ANDATA
-----------------------------------------------------------------------------------------------------------------------------------------------------------------------------------------------------1) ANZIOLAVINIO
FUTBOLCLUB S.R.L.
90 BRUSCHINI MASSIMO "B" (TERRA)
ANZIO
4/10/14 15:00
VIA NETTUNENSE KM 36.500
2) CERTOSA A.R.L.
CALCIO SEZZE
92 CERTOSA
(SINTEX)
ROMA (CENTOCELLE)
4/10/14 16:45
VIA DI CENTOCELLE 146
3) FROSINONE CALCIO S.R.L.
CINECITTA BETTINI S.R.L.
336 COMUNALE
(SINTEX)
SUPINO (LA SELVOTTA)
4/10/14 15:00
VIA SELVOTTA SNC
4) POLISPORTIVA CARSO
APRILIA S.R.L.
306 COMUNALE
(TERRA)
LATINA (BORGO CARSO)
4/10/14 15:00
VIA SALLUSTIO SNC
5) ROMA SPA
CALCIO SAN CESAREO
1498 A. DI BARTOLOMEI "A" (SINTEX)
ROMA (TRIGORIA)
4/10/14 14:30
P.LE DINO VIOLA 1
6) TOR DI QUINTO
SAVIO S.R.L.
87 TESTA VITTORIO "A"
(SINTEX)
ROMA (TOR DI QUINTO)
4/10/14 16:45
VIA DEL BAIARDO 25
7) TOR SAPIENZA S.R.L.
LODIGIANI CALCIO
9 COMUNALE ALBERINI
(SINTEX)
ROMA (COLLI ANIENE)
4/10/14 16:45
VIA DELI ALBERINI SNC
- CRL 18/17 CAMPIONATO
GS
GIORNATA
1
COMITATO LAZIO
GIOVANISSIMI REG. FASCIA B
ANDATA
* * * * E L E N C O
CAMPIONATO
GS
D E L L E
G A R E * * * *
GIOVANISSIMI REGIONALI FASCIA B
-----------------------------------------------------------------------------------------------------------------------------------------------------------------------------------------------------GIRONE A
GIORNATA 1 ANDATA
-----------------------------------------------------------------------------------------------------------------------------------------------------------------------------------------------------1) CIVITAVECCHIA 1920
S.PAOLO OSTIENSE
686 TAMAGNINI VITTORIO
(SINTEX)
CIVITAVECCHIA (CAMPO DELL'ORO)
4/10/14 17:30
LARGO MARTIRI DI VIA FANI SNC
2) OTTAVIA
NUOVA VALLE AURELIA
244 DI MARCO IVO
(TERRA)
ROMA (OTTAVIA)
4/10/14 16:45
VIA DELLE CANOSSIANE 10
3) PALOCCO
D.L.F. CIVITAVECCHIA
279 PALOCCO
(TERRA)
ROMA (CASAL PALOCCO)
5/10/14
9:00
VIA PARTENIO DI NICEA SNC
4) PETRIANA
FOOTBALL CLUB CASALOTTI
384 GELSOMINO "A"
(SINTEX)
ROMA (AURELIO)
4/10/14 15:00
VIA SANTA MARIA MEDIATRICE 24
5) SELVA CANDIDA
FREGENE
394 FEDELI DANTE "B"
(TERRA)
ROMA (SELVA CANDIDA)
4/10/14 15:00
VIA GUGLIELMO GIRARDI 250
6) VIS AURELIA S.R.L.
MONTESPACCATO S.R.L.
45 CECCACCI MARIO
(TERRA
ROMA (PINETA SACCHETTI)
4/10/14 15:00
VIA GIOACCHINO VENTURA 54
7) VITERBESE CASTRENSE SRL
LUPA ROMA F.C. S.R.L.
544 CECCACCI ARMANDO
(ERBA)
BASSANO IN TEVERINA
4/10/14 15:00
VIA DEL CAMPO SPORTIVO
-----------------------------------------------------------------------------------------------------------------------------------------------------------------------------------------------------GIRONE B
GIORNATA 1 ANDATA
-----------------------------------------------------------------------------------------------------------------------------------------------------------------------------------------------------1) ACQUACETOSA CENTRO CALCIO
FONTE NUOVA
87 TESTA VITTORIO "A"
(SINTEX)
ROMA (TOR DI QUINTO)
4/10/14 18:00
VIA DEL BAIARDO 25
2) ATHLETIC SOCCER ACADEMY
SANSA F.C.
987 CLAUDIO ED ANDREA
(ERBA)
ROMA (PRIMA PORTA)
4/10/14 15:00
VIA DI SANTA CORNELIA 238
3) ATLETICO FIDENE
CIRCOLO GUARDIADIFINANZA
527 MONTESACRO
(SINTEX)
ROMA (NOMENTANA)
4/10/14 16:15
VIA NOMENTANA 858
4) MONTECELIO BORUSSIA
GUIDONIA MONTECELIO
297 VALENTINI FABRIZIO
(TERRA)
ROMA (TORRE GAIA)
4/10/14 15:00
VIA GROTTE CELONI 85
5) NUOVA MILVIA
VILLANOVA CALCIO
263 ANGELUCCI VITTORIO
(SINTEX)
ROMA (SETTEBAGNI)
5/10/14 12:15
VIA SALARIA 1403
6) RIETI S.R.L.
FIANO ROMANO
780 CICCAGLIONI ROBERTO
(SINTEX)
RIETI
4/10/14 17:30
VIA TERMINILLO, SNC
7) SPORTING TANAS CALCIO
ACCADEMIA CALCIO ROMA
22 SBARDELLA ANTONIO
(SINTEX)
ROMA (PRIMAVALLE)
5/10/14
9:00
VIA CARD. D. CAPRANICA 41
-----------------------------------------------------------------------------------------------------------------------------------------------------------------------------------------------------GIRONE C
GIORNATA 1 ANDATA
-----------------------------------------------------------------------------------------------------------------------------------------------------------------------------------------------------1) CASTELLIRI 1971
ACCADEMIA FROSINONE S.C.
201 SAN LORENZO
(TERRA)
CASTELLIRI
5/10/14
9:00
VIA PANTANO 12
2) CENTRO CALCIO ROSSONERO
ROMA VIII A R.L.
458 FABRIZI AMEDEO
(SINTEX)
ROMA (MORENA)
4/10/14 16:30
VIA PAZZANO 1
3) CEPRANO CALCIO
ANAGNI CALCIO
192 COMUNALE
(SINTEX)
CEPRANO
4/10/14 15:30
VIA CORNETE SNC
4) CITTA DI CIAMPINO
PRO ROMA CALCIO A.S.D.
710 SUPERGA
(SINTEX)
CIAMPINO
4/10/14 15:00
VIA SUPERGA SNC
5) GDC PONTE DI NONA
LIBERTAS CENTOCELLE
41 GABII
(ERBA)
ROMA (PONTE DI NONA)
4/10/14 15:00
VIA ALDO CAPITINI SNC
6) LOFRA
ALMAS ROMA S.R.L.
104 CAPO I PRATI "B"
(TERRA)
FIUGGI
5/10/14 10:00
VIALE DELLO SPORT SNC
7) VIVACE GROTTAFERRATA
GIARDINETTI
89 COMUNALE
(SINTEX)
GROTTAFERRATA
4/10/14 15:00
VIA DEGLI ULIVI 1
-----------------------------------------------------------------------------------------------------------------------------------------------------------------------------------------------------GIRONE D
GIORNATA 1 ANDATA
-----------------------------------------------------------------------------------------------------------------------------------------------------------------------------------------------------1) ALBALONGA
FONTE MERAVIGLIOSA
44 PIO XII
(ERBA)
ALBANO LAZIALE
4/10/14 15:00
PIAZZA MONS.C.GUERRUCCI,SNC
2) CYNTHIA 1920 S.R.L.
V.J.S. VELLETRI CALCIO
1320 IORIO LUCIANO
(SINTEX)
NEMI (LE COLOMBE)
4/10/14 15:00
VIA DEI CORSI
3) FORMIA 1905 CALCIO
SABOTINO
600 ENAOLI
(TERRA)
FORMIA
4/10/14 15:00
VIA S.MARIA DI CERQUITO SNC
4) LATINA CALCIO S.R.L.
FORTITUDO CALCIO ROMA FC
316 PANTANACCIO "B"
(ERBA)
LATINA (PANTANACCIO)
4/10/14 15:00
VIA PANTANACCIO SNC
5) PROCALCIO FERENTINO
RACING CLUB S.T.
713 FRAIEGARI G.
(SINTEX) PIGLIO
4/10/14 15:00
VIA TORRETTA SNC
6) SERMONETA CALCIO
AGORA FC
598 LE PRATE
(ERBA)
SERMONETA (MONTICCHIO)
4/10/14 15:00
VIA LE PRATE SNC
7) TERRACINA CALCIO 1925 ARL
CENTRO SPORTIVO PRIMAVERA
23 COLAVOLPE MARIO "A"
(ERBA)
TERRACINA (SAN MARTINO)
5/10/14 11:00
VIA CECCACCIO
- CRL 18/18 *
REGIONALE GIOVANISSIMI
*
GIRONE:
*
*
*
************************************************************************
.--------------------------------------------------------------.
.--------------------------------------------------------------.
| ANDATA: 5/10/14 |
| RITORNO: 25/01/15 |
| ANDATA: 9/11/14 |
| RITORNO: 1/03/15 |
| ORE...: 16:30
|
1 G I O R N A T A | ORE....: 16:30
|
| ORE...: 16:30
| 6 G I O R N A T A
| ORE....: 16:30
|
|--------------------------------------------------------------|
|--------------------------------------------------------------|
| ACCADEMIA CALCIO ROMA
- SPORTING RIETI
|
| ACQUACETOSA CENTRO CALCIO
- FONTE NUOVA
|
| C.S.V. BREDA S.S.D.R.L.
- VILLANOVA CALCIO
|
| BOREALE A.S.D.
- OLIMPIA
|
| FIANO ROMANO
- BOREALE A.S.D.
|
| C.S.V. BREDA S.S.D.R.L.
- OTTAVIA
|
| FONTE NUOVA
- CASTELVERDE CALCIO ARL
|
| CASTELVERDE CALCIO ARL
- MONTESPACCATO S.R.L.
|
| MONTESPACCATO S.R.L.
- ACQUACETOSA CENTRO CALCIO
|
| GIARDINETTI
- VILLALBA OCRES MOCA
|
| OTTAVIA
- KOLBE PONTE MAMMOLO A.S.D
|
| KOLBE PONTE MAMMOLO A.S.D
- SPORTING RIETI
|
| REAL TOR SAPIENZA
- GIARDINETTI
|
| REAL TOR SAPIENZA
- FIANO ROMANO
|
| VILLALBA OCRES MOCA
- OLIMPIA
|
| VILLANOVA CALCIO
- ACCADEMIA CALCIO ROMA
|
.--------------------------------------------------------------.
.--------------------------------------------------------------.
| ANDATA: 12/10/14 |
| RITORNO: 1/02/15 |
| ANDATA: 16/11/14 |
| RITORNO: 8/03/15 |
| ORE...: 16:30
|
2 G I O R N A T A | ORE....: 16:30
|
| ORE...: 16:30
| 7 G I O R N A T A
| ORE....: 16:30
|
|--------------------------------------------------------------|
|--------------------------------------------------------------|
| ACQUACETOSA CENTRO CALCIO
- FIANO ROMANO
|
| ACCADEMIA CALCIO ROMA
- C.S.V. BREDA S.S.D.R.L.
|
| BOREALE A.S.D.
- OTTAVIA
|
| FIANO ROMANO
- MONTESPACCATO S.R.L.
|
| CASTELVERDE CALCIO ARL
- C.S.V. BREDA S.S.D.R.L.
|
| FONTE NUOVA
- GIARDINETTI
|
| GIARDINETTI
- MONTESPACCATO S.R.L.
|
| KOLBE PONTE MAMMOLO A.S.D
- CASTELVERDE CALCIO ARL
|
| KOLBE PONTE MAMMOLO A.S.D
- ACCADEMIA CALCIO ROMA
|
| OLIMPIA
- ACQUACETOSA CENTRO CALCIO
|
| OLIMPIA
- FONTE NUOVA
|
| OTTAVIA
- REAL TOR SAPIENZA
|
| SPORTING RIETI
- VILLALBA OCRES MOCA
|
| SPORTING RIETI
- BOREALE A.S.D.
|
| VILLANOVA CALCIO
- REAL TOR SAPIENZA
|
| VILLALBA OCRES MOCA
- VILLANOVA CALCIO
|
.--------------------------------------------------------------.
.--------------------------------------------------------------.
| ANDATA: 19/10/14 |
| RITORNO: 8/02/15 |
| ANDATA: 23/11/14 |
| RITORNO: 15/03/15 |
| ORE...: 16:30
|
3 G I O R N A T A | ORE....: 16:30
|
| ORE...: 16:30
| 8 G I O R N A T A
| ORE....: 16:30
|
|--------------------------------------------------------------|
|--------------------------------------------------------------|
| ACCADEMIA CALCIO ROMA
- BOREALE A.S.D.
|
| ACQUACETOSA CENTRO CALCIO
- SPORTING RIETI
|
| FIANO ROMANO
- GIARDINETTI
|
| BOREALE A.S.D.
- KOLBE PONTE MAMMOLO A.S.D
|
| FONTE NUOVA
- SPORTING RIETI
|
| C.S.V. BREDA S.S.D.R.L.
- VILLALBA OCRES MOCA
|
| MONTESPACCATO S.R.L.
- VILLANOVA CALCIO
|
| CASTELVERDE CALCIO ARL
- FIANO ROMANO
|
| OLIMPIA
- CASTELVERDE CALCIO ARL
|
| GIARDINETTI
- OLIMPIA
|
| OTTAVIA
- ACQUACETOSA CENTRO CALCIO
|
| MONTESPACCATO S.R.L.
- OTTAVIA
|
| REAL TOR SAPIENZA
- C.S.V. BREDA S.S.D.R.L.
|
| REAL TOR SAPIENZA
- ACCADEMIA CALCIO ROMA
|
| VILLALBA OCRES MOCA
- KOLBE PONTE MAMMOLO A.S.D
|
| VILLANOVA CALCIO
- FONTE NUOVA
|
.--------------------------------------------------------------.
.--------------------------------------------------------------.
| ANDATA: 26/10/14 |
| RITORNO: 15/02/15 |
| ANDATA: 30/11/14 |
| RITORNO: 22/03/15 |
| ORE...: 16:30
|
4 G I O R N A T A | ORE....: 16:30
|
| ORE...: 16:30
| 9 G I O R N A T A
| ORE....: 16:30
|
|--------------------------------------------------------------|
|--------------------------------------------------------------|
| ACQUACETOSA CENTRO CALCIO
- ACCADEMIA CALCIO ROMA
|
| ACCADEMIA CALCIO ROMA
- MONTESPACCATO S.R.L.
|
| BOREALE A.S.D.
- VILLALBA OCRES MOCA
|
| BOREALE A.S.D.
- CASTELVERDE CALCIO ARL
|
| C.S.V. BREDA S.S.D.R.L.
- MONTESPACCATO S.R.L.
|
| FONTE NUOVA
- C.S.V. BREDA S.S.D.R.L.
|
| CASTELVERDE CALCIO ARL
- REAL TOR SAPIENZA
|
| KOLBE PONTE MAMMOLO A.S.D
- ACQUACETOSA CENTRO CALCIO
|
| GIARDINETTI
- OTTAVIA
|
| OLIMPIA
- VILLANOVA CALCIO
|
| KOLBE PONTE MAMMOLO A.S.D
- FONTE NUOVA
|
| OTTAVIA
- FIANO ROMANO
|
| SPORTING RIETI
- OLIMPIA
|
| SPORTING RIETI
- GIARDINETTI
|
| VILLANOVA CALCIO
- FIANO ROMANO
|
| VILLALBA OCRES MOCA
- REAL TOR SAPIENZA
|
.--------------------------------------------------------------.
.--------------------------------------------------------------.
| ANDATA: 2/11/14 |
| RITORNO: 22/02/15 |
| ANDATA: 7/12/14 |
| RITORNO: 29/03/15 |
| ORE...: 16:30
|
5 G I O R N A T A | ORE....: 16:30
|
| ORE...: 16:30
| 10 G I O R N A T A
| ORE....: 16:30
|
|--------------------------------------------------------------|
|--------------------------------------------------------------|
| ACCADEMIA CALCIO ROMA
- GIARDINETTI
|
| ACQUACETOSA CENTRO CALCIO
- BOREALE A.S.D.
|
| FIANO ROMANO
- C.S.V. BREDA S.S.D.R.L.
|
| C.S.V. BREDA S.S.D.R.L.
- OLIMPIA
|
| FONTE NUOVA
- BOREALE A.S.D.
|
| CASTELVERDE CALCIO ARL
- OTTAVIA
|
| MONTESPACCATO S.R.L.
- REAL TOR SAPIENZA
|
| FIANO ROMANO
- ACCADEMIA CALCIO ROMA
|
| OLIMPIA
- KOLBE PONTE MAMMOLO A.S.D
|
| GIARDINETTI
- KOLBE PONTE MAMMOLO A.S.D
|
| OTTAVIA
- VILLANOVA CALCIO
|
| MONTESPACCATO S.R.L.
- VILLALBA OCRES MOCA
|
| SPORTING RIETI
- CASTELVERDE CALCIO ARL
|
| REAL TOR SAPIENZA
- FONTE NUOVA
|
| VILLALBA OCRES MOCA
- ACQUACETOSA CENTRO CALCIO
|
| VILLANOVA CALCIO
- SPORTING RIETI
|
|--------------------------------------------------------------|
|--------------------------------------------------------------|
B
BIS
*
.--------------------------------------------------------------.
| ANDATA: 14/12/14 |
| RITORNO: 12/04/15 |
| ORE...: 16:30
| 11 G I O R N A T A | ORE....: 16:30
|
|--------------------------------------------------------------|
| ACCADEMIA CALCIO ROMA
- OTTAVIA
|
| ACQUACETOSA CENTRO CALCIO
- CASTELVERDE CALCIO ARL
|
| BOREALE A.S.D.
- GIARDINETTI
|
| FONTE NUOVA
- MONTESPACCATO S.R.L.
|
| KOLBE PONTE MAMMOLO A.S.D
- VILLANOVA CALCIO
|
| OLIMPIA
- REAL TOR SAPIENZA
|
| SPORTING RIETI
- C.S.V. BREDA S.S.D.R.L.
|
| VILLALBA OCRES MOCA
- FIANO ROMANO
|
.--------------------------------------------------------------.
| ANDATA: 21/12/14 |
| RITORNO: 19/04/15 |
| ORE...: 16:30
| 12 G I O R N A T A | ORE....: 16:30
|
|--------------------------------------------------------------|
| C.S.V. BREDA S.S.D.R.L.
- KOLBE PONTE MAMMOLO A.S.D
|
| CASTELVERDE CALCIO ARL
- ACCADEMIA CALCIO ROMA
|
| FIANO ROMANO
- FONTE NUOVA
|
| GIARDINETTI
- ACQUACETOSA CENTRO CALCIO
|
| MONTESPACCATO S.R.L.
- OLIMPIA
|
| OTTAVIA
- VILLALBA OCRES MOCA
|
| REAL TOR SAPIENZA
- SPORTING RIETI
|
| VILLANOVA CALCIO
- BOREALE A.S.D.
|
.--------------------------------------------------------------.
| ANDATA: 4/01/15 |
| RITORNO: 26/04/15 |
| ORE...: 16:30
| 13 G I O R N A T A | ORE....: 16:30
|
|--------------------------------------------------------------|
| ACQUACETOSA CENTRO CALCIO
- VILLANOVA CALCIO
|
| BOREALE A.S.D.
- C.S.V. BREDA S.S.D.R.L.
|
| FONTE NUOVA
- OTTAVIA
|
| GIARDINETTI
- CASTELVERDE CALCIO ARL
|
| KOLBE PONTE MAMMOLO A.S.D
- REAL TOR SAPIENZA
|
| OLIMPIA
- FIANO ROMANO
|
| SPORTING RIETI
- MONTESPACCATO S.R.L.
|
| VILLALBA OCRES MOCA
- ACCADEMIA CALCIO ROMA
|
.--------------------------------------------------------------.
| ANDATA: 11/01/15 |
| RITORNO: 3/05/15 |
| ORE...: 16:30
| 14 G I O R N A T A | ORE....: 16:30
|
|--------------------------------------------------------------|
| ACCADEMIA CALCIO ROMA
- FONTE NUOVA
|
| C.S.V. BREDA S.S.D.R.L.
- ACQUACETOSA CENTRO CALCIO
|
| FIANO ROMANO
- SPORTING RIETI
|
| MONTESPACCATO S.R.L.
- KOLBE PONTE MAMMOLO A.S.D
|
| OTTAVIA
- OLIMPIA
|
| REAL TOR SAPIENZA
- BOREALE A.S.D.
|
| VILLALBA OCRES MOCA
- CASTELVERDE CALCIO ARL
|
| VILLANOVA CALCIO
- GIARDINETTI
|
.--------------------------------------------------------------.
| ANDATA: 18/01/15 |
| RITORNO: 10/05/15 |
| ORE...: 16:30
| 15 G I O R N A T A | ORE....: 16:30
|
|--------------------------------------------------------------|
| ACQUACETOSA CENTRO CALCIO
- REAL TOR SAPIENZA
|
| BOREALE A.S.D.
- MONTESPACCATO S.R.L.
|
| CASTELVERDE CALCIO ARL
- VILLANOVA CALCIO
|
| FONTE NUOVA
- VILLALBA OCRES MOCA
|
| GIARDINETTI
- C.S.V. BREDA S.S.D.R.L.
|
| KOLBE PONTE MAMMOLO A.S.D
- FIANO ROMANO
|
| OLIMPIA
- ACCADEMIA CALCIO ROMA
|
| SPORTING RIETI
- OTTAVIA
|
|--------------------------------------------------------------|
- CRL 18/19 -
*---------------------------*
|
|
**
| COMITATO
|
E L E N C O
C A M P I
REGIONALE GIOVANISSIMI
D A
G I O C O
GIRONE:
*-----------------------------------*
**
|
|
B
BIS
| LAZIO
|
|---------------------------------------------------------------------------------------------------------------------|
| SOCIETA'
| CAMPO| DENOMINAZIONE CAMPO
LOCALITA' CAMPO
| ORA |
|--------------------------------------|------|---------------------------------------------------------------|-------|
|
|
|
|
|
| ACCADEMIA CALCIO ROMA
| 540 | ACADEMY SPORT CENTER (SINTEX) ROMA (BUFALOTTA)
| 15:00 |
|
|
|
|
|
| C.S.V. BREDA S.S.D.R.L.
| 305 | BREDA
(SINTEX) ROMA (VILLAGGIO BREDA)
| 9:30 |
|
|
|
|
|
| FIANO ROMANO
| 626 | VECCHIO COMUNALE
(SINTEX) FIANO ROMANO
| 10:00 |
|
|
|
|
|
| FONTE NUOVA
|
24 | COMUNALE
(SINTEX) FONTE NUOVA
| 9:00 |
|
|
|
|
|
| MONTESPACCATO S.R.L.
|
10 | MONTESPACCATO
(SINTEX) ROMA (MONTESPACCATO)
| 9:00 |
|
|
|
|
|
| OTTAVIA
| 244 | DI MARCO IVO
(TERRA) ROMA (OTTAVIA)
| 9:00 |
|
|
|
|
|
| REAL TOR SAPIENZA
|
57 | CASTELLI GIORGIO
(SINTEX) ROMA (TOR SAPIENZA)
| 9:30 |
|
|
|
|
|
| VILLALBA OCRES MOCA
|
30 | OCRES MOCA
(ERBA) GUIDONIA MONTECELIO (VILLALBA | 9:00 |
|
|
|
|
|
| ACQUACETOSA CENTRO CALCIO
|
87 | TESTA VITTORIO "A"
(SINTEX) ROMA (TOR DI QUINTO)
| 18:00 |
|
|
|
|
|
| BOREALE A.S.D.
| 1520 | IL TRIFOGLIO "A"
(ERBA) ROMA (TOR DI QUINTO)
| 9:00 |
|
|
|
|
|
| CASTELVERDE CALCIO ARL
| 303 | MANUALI MARIO
(SINTEX) ROMA (CASTELVERDE - LUNGHEZZA)| 9:00 |
|
|
|
|
|
| GIARDINETTI
| 166 | SBARDELLA AGAPITO
(SINTEX) ROMA (GIARDINETTI)
| 9:00 |
|
|
|
|
|
| KOLBE PONTE MAMMOLO A.S.D
| 571 | REBIBBIA
(ERBA) ROMA (REBIBBIA)
| 10:00 |
|
|
|
|
|
| OLIMPIA
|
72 | BACHELET VITTORIO
(SINTEX) ROMA (GIANICOLENSE)
| 9:00 |
|
|
|
|
|
| SPORTING RIETI
| 133 | VECCHIARELLI IPPOLITO
(ERBA) RIETI (VILLA REATINA)
|
|
|
|
|
|
|
| VILLANOVA CALCIO
|
98 | FERRARIS ATTILIO
(SINTEX) GUIDONIA MONTECELIO-(VILLANOVA| 9:00 |
|
|
|
|
|
|--------------------------------------|------|---------------------------------------------------------------|-------|
|
------------------------------------------------INDIRIZZO
TELEFONO
|
------------------------------------------------VIA DI SETTEBAGNI 340
|
|
|
|
| 06
2055998
|
|
|
VIA DELLO SPORT SNC
| 0765 482828
|
|
|
VIA GIOBERTI SNC
| 06
9059755
|
|
|
VIA STEFANO VAJ 41
| 06
61522485 |
|
|
VIA DELLE CANOSSIANE 10
| 06
30812878 |
|
|
VIA FELICE DE ANDREIS 29/31
| 06
2281290
|
|
|
VIA PANTANE 9/11
| 342 1868447
|
|
|
VIA DEL BAIARDO 25
| 06
3330083
|
|
|
VIALE DI TOR DI QUINTO 57/B
| 06
33225470 |
|
|
VIA CIVITELLA CASANOVA
|
33458051 |
|
|
VIA DEI RUDERI DI TORRENOVA 2 | 06
2010370
|
|
|
VIA RAFFAELE MAJETTI 70
| 06
43980290 |
|
|
VIA VITELLIA 50
| 06
5806854
|
|
|
VIA CAMPOLONIANO SNC
|
32488903 |
|
|
VIA UMBERTO I, 3
| 342 324682
|
|
|
------------------------------------------------VIA ERCOLE MARELLI 29
- CRL 18/20 -
COMITATO LAZIO
* * * * E L E N C O
D E L L E
CAMPIONATO
GR
G A R E * * * *
REGIONALE GIOVANISSIMI
22/09/14
Pag.
2
-----------------------------------------------------------------------------------------------------------------------------------------------------------------------------------------------------GIRONE B
BIS
GIORNATA 1 ANDATA
Le società in neretto sono fuori classifica
-----------------------------------------------------------------------------------------------------------------------------------------------------------------------------------------------------1) ACCADEMIA CALCIO ROMA
SPORTING RIETI
540 ACADEMY SPORT CENTER (SINTEX)
ROMA (BUFALOTTA)
5/10/14 15:00
VIA DI SETTEBAGNI 340
2) C.S.V. BREDA S.S.D.R.L.
VILLANOVA CALCIO
305 BREDA
(SINTEX)
ROMA (VILLAGGIO BREDA)
5/10/14
9:30
VIA ERCOLE MARELLI 29
3) FIANO ROMANO
BOREALE A.S.D.
626 VECCHIO COMUNALE
(SINTEX)
FIANO ROMANO
5/10/14 10:00
VIA DELLO SPORT SNC
4) FONTE NUOVA
CASTELVERDE CALCIO ARL
24 COMUNALE
(SINTEX)
FONTE NUOVA
5/10/14
9:00
VIA GIOBERTI SNC
5) MONTESPACCATO S.R.L.
ACQUACETOSA CENTRO CALCIO
10 MONTESPACCATO
(SINTEX)
ROMA (MONTESPACCATO)
5/10/14
9:00
VIA STEFANO VAJ 41
6) OTTAVIA
KOLBE PONTE MAMMOLO A.S.D
244 DI MARCO IVO
(TERRA)
ROMA (OTTAVIA)
5/10/14
9:00
VIA DELLE CANOSSIANE 10
7) REAL TOR SAPIENZA
GIARDINETTI
57 CASTELLI GIORGIO
(SINTEX)
ROMA (TOR SAPIENZA)
5/10/14
9:30
VIA FELICE DE ANDREIS 29/31
8) VILLALBA OCRES MOCA
OLIMPIA
30 OCRES MOCA
(ERBA)
GUIDONIA MONTECELIO (VILLALBA
5/10/14
9:00
VIA PANTANE 9/11
COMITATO LAZIO
* * * * E L E N C O
CAMPIONATO
GR
D E L L E
G A R E * * * *
REGIONALE GIOVANISSIMI
22/09/14
Pag.
2
-----------------------------------------------------------------------------------------------------------------------------------------------------------------------------------------------------GIRONE B
BIS
GIORNATA 2 ANDATA
Le società in neretto sono fuori classifica
-----------------------------------------------------------------------------------------------------------------------------------------------------------------------------------------------------1) ACQUACETOSA CENTRO CALCIO
FIANO ROMANO
87 TESTA VITTORIO "A"
(SINTEX)
ROMA (TOR DI QUINTO)
12/10/14 18:00
VIA DEL BAIARDO 25
2) BOREALE A.S.D.
OTTAVIA
1520 IL TRIFOGLIO "A"
(ERBA)
ROMA (TOR DI QUINTO)
12/10/14
9:00
VIALE DI TOR DI QUINTO 57/B
3) CASTELVERDE CALCIO ARL
C.S.V. BREDA S.S.D.R.L.
303 MANUALI MARIO
(SINTEX)
ROMA (CASTELVERDE - LUNGHEZZA) 12/10/14
9:00
VIA CIVITELLA CASANOVA
4) GIARDINETTI
MONTESPACCATO S.R.L.
166 SBARDELLA AGAPITO
(SINTEX)
ROMA (GIARDINETTI)
12/10/14
9:00
VIA DEI RUDERI DI TORRENOVA 2
5) KOLBE PONTE MAMMOLO A.S.D
ACCADEMIA CALCIO ROMA
571 REBIBBIA
(ERBA)
ROMA (REBIBBIA)
12/10/14 10:00
VIA RAFFAELE MAJETTI 70
6) OLIMPIA
FONTE NUOVA
72 BACHELET VITTORIO
(SINTEX)
ROMA (GIANICOLENSE)
12/10/14
9:00
VIA VITELLIA 50
7) SPORTING RIETI
VILLALBA OCRES MOCA
133 VECCHIARELLI IPPOLITO
(ERBA)
RIETI (VILLA REATINA)
12/10/14 16:30
VIA CAMPOLONIANO SNC
8) VILLANOVA CALCIO
REAL TOR SAPIENZA
98 FERRARIS ATTILIO
(SINTEX)
GUIDONIA MONTECELIO-(VILLANOVA 12/10/14
9:00
VIA UMBERTO I, 3
- CRL 18/21 -
************************************************************************
*
*
*
REGIONALE GIOVANISSIMI
GIRONE:
*
*
************************************************************************
.--------------------------------------------------------------.
.--------------------------------------------------------------.
| ANDATA: 5/10/14 |
| RITORNO: 25/01/15 |
| ANDATA: 9/11/14 |
| RITORNO: 1/03/15 |
| ORE...: 16:30
|
1 G I O R N A T A | ORE....: 16:30
|
| ORE...: 16:30
| 6 G I O R N A T A
| ORE....: 16:30
|
|--------------------------------------------------------------|
|--------------------------------------------------------------|
| APRILIA S.R.L.
- CYNTHIA 1920 S.R.L.
|
| ALBALONGA
- APRILIA S.R.L.
|
| BORGO PODGORA 1950
- VIRTUS NETTUNO
|
| BORGO PODGORA 1950
- SERMONETA CALCIO
|
| CENTRO SPORTIVO PRIMAVERA
- PONTINIA
|
| CYNTHIA 1920 S.R.L.
- SELVA DEI PINI POMEZIA
|
| CITTA DI NETTUNO
- CALCIO SEZZE
|
| FORTITUDO VELLETRI 1986
- CENTRO SPORTIVO PRIMAVERA
|
| DON BOSCO GAETA A.S.D.
- CITTA DI MINTURNOMARINA
|
| PONTINIA
- CITTA DI MINTURNOMARINA
|
| FORTITUDO VELLETRI 1986
- PRO CISTERNA 1926
|
| PRO CISTERNA 1926
- DON BOSCO GAETA A.S.D.
|
| SELVA DEI PINI POMEZIA
- ALBALONGA
|
| RACING CLUB S.T.
- CALCIO SEZZE
|
| SERMONETA CALCIO
- RACING CLUB S.T.
|
| VIRTUS NETTUNO
- CITTA DI NETTUNO
|
.--------------------------------------------------------------.
.--------------------------------------------------------------.
| ANDATA: 12/10/14 |
| RITORNO: 1/02/15 |
| ANDATA: 16/11/14 |
| RITORNO: 8/03/15 |
| ORE...: 16:30
|
2 G I O R N A T A | ORE....: 16:30
|
| ORE...: 16:30
| 7 G I O R N A T A
| ORE....: 16:30
|
|--------------------------------------------------------------|
|--------------------------------------------------------------|
| ALBALONGA
- CENTRO SPORTIVO PRIMAVERA
|
| APRILIA S.R.L.
- PRO CISTERNA 1926
|
| CALCIO SEZZE
- DON BOSCO GAETA A.S.D.
|
| CALCIO SEZZE
- PONTINIA
|
| CITTA DI MINTURNOMARINA
- APRILIA S.R.L.
|
| CENTRO SPORTIVO PRIMAVERA
- SELVA DEI PINI POMEZIA
|
| CYNTHIA 1920 S.R.L.
- BORGO PODGORA 1950
|
| CITTA DI MINTURNOMARINA
- ALBALONGA
|
| PONTINIA
- SERMONETA CALCIO
|
| CITTA DI NETTUNO
- BORGO PODGORA 1950
|
| PRO CISTERNA 1926
- SELVA DEI PINI POMEZIA
|
| DON BOSCO GAETA A.S.D.
- VIRTUS NETTUNO
|
| RACING CLUB S.T.
- CITTA DI NETTUNO
|
| RACING CLUB S.T.
- CYNTHIA 1920 S.R.L.
|
| VIRTUS NETTUNO
- FORTITUDO VELLETRI 1986
|
| SERMONETA CALCIO
- FORTITUDO VELLETRI 1986
|
.--------------------------------------------------------------.
.--------------------------------------------------------------.
| ANDATA: 19/10/14 |
| RITORNO: 8/02/15 |
| ANDATA: 23/11/14 |
| RITORNO: 15/03/15 |
| ORE...: 16:30
|
3 G I O R N A T A | ORE....: 16:30
|
| ORE...: 16:30
| 8 G I O R N A T A
| ORE....: 16:30
|
|--------------------------------------------------------------|
|--------------------------------------------------------------|
| APRILIA S.R.L.
- CALCIO SEZZE
|
| ALBALONGA
- CALCIO SEZZE
|
| CENTRO SPORTIVO PRIMAVERA
- PRO CISTERNA 1926
|
| BORGO PODGORA 1950
- DON BOSCO GAETA A.S.D.
|
| CITTA DI MINTURNOMARINA
- CYNTHIA 1920 S.R.L.
|
| CYNTHIA 1920 S.R.L.
- CENTRO SPORTIVO PRIMAVERA
|
| CITTA DI NETTUNO
- PONTINIA
|
| FORTITUDO VELLETRI 1986
- CITTA DI NETTUNO
|
| DON BOSCO GAETA A.S.D.
- RACING CLUB S.T.
|
| PONTINIA
- RACING CLUB S.T.
|
| FORTITUDO VELLETRI 1986
- BORGO PODGORA 1950
|
| PRO CISTERNA 1926
- CITTA DI MINTURNOMARINA
|
| SELVA DEI PINI POMEZIA
- VIRTUS NETTUNO
|
| SELVA DEI PINI POMEZIA
- SERMONETA CALCIO
|
| SERMONETA CALCIO
- ALBALONGA
|
| VIRTUS NETTUNO
- APRILIA S.R.L.
|
.--------------------------------------------------------------.
.--------------------------------------------------------------.
| ANDATA: 26/10/14 |
| RITORNO: 15/02/15 |
| ANDATA: 30/11/14 |
| RITORNO: 22/03/15 |
| ORE...: 16:30
|
4 G I O R N A T A | ORE....: 16:30
|
| ORE...: 16:30
| 9 G I O R N A T A
| ORE....: 16:30
|
|--------------------------------------------------------------|
|--------------------------------------------------------------|
| ALBALONGA
- CITTA DI NETTUNO
|
| APRILIA S.R.L.
- BORGO PODGORA 1950
|
| BORGO PODGORA 1950
- SELVA DEI PINI POMEZIA
|
| CALCIO SEZZE
- PRO CISTERNA 1926
|
| CALCIO SEZZE
- CITTA DI MINTURNOMARINA
|
| CITTA DI MINTURNOMARINA
- VIRTUS NETTUNO
|
| CYNTHIA 1920 S.R.L.
- FORTITUDO VELLETRI 1986
|
| CITTA DI NETTUNO
- SELVA DEI PINI POMEZIA
|
| PONTINIA
- DON BOSCO GAETA A.S.D.
|
| DON BOSCO GAETA A.S.D.
- FORTITUDO VELLETRI 1986
|
| PRO CISTERNA 1926
- SERMONETA CALCIO
|
| PONTINIA
- CYNTHIA 1920 S.R.L.
|
| RACING CLUB S.T.
- APRILIA S.R.L.
|
| RACING CLUB S.T.
- ALBALONGA
|
| VIRTUS NETTUNO
- CENTRO SPORTIVO PRIMAVERA
|
| SERMONETA CALCIO
- CENTRO SPORTIVO PRIMAVERA
|
.--------------------------------------------------------------.
.--------------------------------------------------------------.
| ANDATA: 2/11/14 |
| RITORNO: 22/02/15 |
| ANDATA: 7/12/14 |
| RITORNO: 29/03/15 |
| ORE...: 16:30
|
5 G I O R N A T A | ORE....: 16:30
|
| ORE...: 16:30
| 10 G I O R N A T A
| ORE....: 16:30
|
|--------------------------------------------------------------|
|--------------------------------------------------------------|
| APRILIA S.R.L.
- PONTINIA
|
| ALBALONGA
- PONTINIA
|
| CALCIO SEZZE
- CYNTHIA 1920 S.R.L.
|
| BORGO PODGORA 1950
- CITTA DI MINTURNOMARINA
|
| CENTRO SPORTIVO PRIMAVERA
- BORGO PODGORA 1950
|
| CENTRO SPORTIVO PRIMAVERA
- CITTA DI NETTUNO
|
| CITTA DI MINTURNOMARINA
- RACING CLUB S.T.
|
| CYNTHIA 1920 S.R.L.
- SERMONETA CALCIO
|
| CITTA DI NETTUNO
- PRO CISTERNA 1926
|
| FORTITUDO VELLETRI 1986
- APRILIA S.R.L.
|
| DON BOSCO GAETA A.S.D.
- ALBALONGA
|
| PRO CISTERNA 1926
- RACING CLUB S.T.
|
| SELVA DEI PINI POMEZIA
- FORTITUDO VELLETRI 1986
|
| SELVA DEI PINI POMEZIA
- DON BOSCO GAETA A.S.D.
|
| SERMONETA CALCIO
- VIRTUS NETTUNO
|
| VIRTUS NETTUNO
- CALCIO SEZZE
|
|--------------------------------------------------------------|
|--------------------------------------------------------------|
D
BIS
*
.--------------------------------------------------------------.
| ANDATA: 14/12/14 |
| RITORNO: 12/04/15 |
| ORE...: 16:30
| 11 G I O R N A T A | ORE....: 16:30
|
|--------------------------------------------------------------|
| ALBALONGA
- CYNTHIA 1920 S.R.L.
|
| APRILIA S.R.L.
- SELVA DEI PINI POMEZIA
|
| CALCIO SEZZE
- BORGO PODGORA 1950
|
| CITTA DI MINTURNOMARINA
- FORTITUDO VELLETRI 1986
|
| CITTA DI NETTUNO
- SERMONETA CALCIO
|
| DON BOSCO GAETA A.S.D.
- CENTRO SPORTIVO PRIMAVERA
|
| PONTINIA
- PRO CISTERNA 1926
|
| RACING CLUB S.T.
- VIRTUS NETTUNO
|
.--------------------------------------------------------------.
| ANDATA: 21/12/14 |
| RITORNO: 19/04/15 |
| ORE...: 16:30
| 12 G I O R N A T A | ORE....: 16:30
|
|--------------------------------------------------------------|
| BORGO PODGORA 1950
- RACING CLUB S.T.
|
| CENTRO SPORTIVO PRIMAVERA
- APRILIA S.R.L.
|
| CYNTHIA 1920 S.R.L.
- CITTA DI NETTUNO
|
| FORTITUDO VELLETRI 1986
- CALCIO SEZZE
|
| PRO CISTERNA 1926
- ALBALONGA
|
| SELVA DEI PINI POMEZIA
- CITTA DI MINTURNOMARINA
|
| SERMONETA CALCIO
- DON BOSCO GAETA A.S.D.
|
| VIRTUS NETTUNO
- PONTINIA
|
.--------------------------------------------------------------.
| ANDATA: 4/01/15 |
| RITORNO: 26/04/15 |
| ORE...: 16:30
| 13 G I O R N A T A | ORE....: 16:30
|
|--------------------------------------------------------------|
| ALBALONGA
- VIRTUS NETTUNO
|
| APRILIA S.R.L.
- SERMONETA CALCIO
|
| CALCIO SEZZE
- SELVA DEI PINI POMEZIA
|
| CITTA DI MINTURNOMARINA
- CENTRO SPORTIVO PRIMAVERA
|
| DON BOSCO GAETA A.S.D.
- CITTA DI NETTUNO
|
| PONTINIA
- BORGO PODGORA 1950
|
| PRO CISTERNA 1926
- CYNTHIA 1920 S.R.L.
|
| RACING CLUB S.T.
- FORTITUDO VELLETRI 1986
|
.--------------------------------------------------------------.
| ANDATA: 11/01/15 |
| RITORNO: 3/05/15 |
| ORE...: 16:30
| 14 G I O R N A T A | ORE....: 16:30
|
|--------------------------------------------------------------|
| BORGO PODGORA 1950
- ALBALONGA
|
| CENTRO SPORTIVO PRIMAVERA
- CALCIO SEZZE
|
| CITTA DI NETTUNO
- APRILIA S.R.L.
|
| DON BOSCO GAETA A.S.D.
- CYNTHIA 1920 S.R.L.
|
| FORTITUDO VELLETRI 1986
- PONTINIA
|
| SELVA DEI PINI POMEZIA
- RACING CLUB S.T.
|
| SERMONETA CALCIO
- CITTA DI MINTURNOMARINA
|
| VIRTUS NETTUNO
- PRO CISTERNA 1926
|
.--------------------------------------------------------------.
| ANDATA: 18/01/15 |
| RITORNO: 10/05/15 |
| ORE...: 16:30
| 15 G I O R N A T A | ORE....: 16:30
|
|--------------------------------------------------------------|
| ALBALONGA
- FORTITUDO VELLETRI 1986
|
| APRILIA S.R.L.
- DON BOSCO GAETA A.S.D.
|
| CALCIO SEZZE
- SERMONETA CALCIO
|
| CITTA DI MINTURNOMARINA
- CITTA DI NETTUNO
|
| CYNTHIA 1920 S.R.L.
- VIRTUS NETTUNO
|
| PONTINIA
- SELVA DEI PINI POMEZIA
|
| PRO CISTERNA 1926
- BORGO PODGORA 1950
|
| RACING CLUB S.T.
- CENTRO SPORTIVO PRIMAVERA
|
|--------------------------------------------------------------|
- CRL 18/22 -
*---------------------------*
|
|
**
| COMITATO
|
E L E N C O
C A M P I
D A
G I O C O
REGIONALE GIOVANISSIMI
*-----------------------------------*
**
|
|
GIRONE:
D
| LAZIO
|
**
|---------------------------------------------------------------------------------------------------------------------|
| SOCIETA'
| CAMPO| DENOMINAZIONE CAMPO
LOCALITA' CAMPO
| ORA |
|--------------------------------------|------|---------------------------------------------------------------|-------|
|
|
|
|
|
| APRILIA S.R.L.
| 514 | CI.MA.NUOVO PRIMAVERA (SINTEX) APRILIA
| 9:00 |
|
|
|
|
|
| BORGO PODGORA 1950
| 313 | BONGIORNO PIETRO "A"
(ERBA)
LATINA (BORGO PODGORA)
| 9:30 |
|
|
|
|
|
| CENTRO SPORTIVO PRIMAVERA
| 514 | CI.MA.NUOVO PRIMAVERA (SINTEX) APRILIA
| 10:30 |
|
|
|
|
|
| CITTA DI NETTUNO
| 278 | DE FRANCESCHI FILIBERTO(TERRA) NETTUNO
| 9:30 |
|
|
|
|
|
| DON BOSCO GAETA A.S.D.
| 360 | ANELLINO FRANCESCO
(TERRA) GAETA (SAN CARLO)
| 9:00 |
|
|
|
|
|
| FORTITUDO VELLETRI 1986
|
82 | SCAVO GIOVANNI "B"
(SINTEX) VELLETRI
| 9:00 |
|
|
|
|
|
| SELVA DEI PINI POMEZIA
| 894 | SPORT'S CAMPUS
(SINTEX) POMEZIA
| 9:30 |
|
|
|
|
|
| SERMONETA CALCIO
| 326 | CAETANI CAMILLO
(ERBA) SERMONETA
| 10:30 |
|
|
|
|
|
| ALBALONGA
|
44 | PIO XII
(ERBA) ALBANO LAZIALE
| 9:00 |
|
|
|
|
|
| CALCIO SEZZE
| 684 | LE FONTANELLE
(TERRA) SEZZE
| 9:00 |
|
|
|
|
|
| CITTA DI MINTURNOMARINA
|
79 | CARACCIOLO CARAFA
(TERRA) MINTURNO
| 9:00 |
|
|
|
|
|
| CYNTHIA 1920 S.R.L.
| 407 | COMUNALE "A"
(ERBA) GENZANO DI ROMA
| 11:00 |
|
|
|
|
|
| PONTINIA
|
76 | COMUNALE
(ERBA) PONTINIA
| 9:00 |
|
|
|
|
|
| PRO CISTERNA 1926
|
17 | BARTOLANI DOMENICO
(SINTEX) CISTERNA DI LATINA
| 10:00 |
|
|
|
|
|
| RACING CLUB S.T.
| 998 | NARDONI LAURA (EX TOVALIERI) S ARDEA (TOR SAN LORENZO)
| 9:30 |
|
|
|
|
|
| VIRTUS NETTUNO
| 596 | RICCI MIRKO
(TERRA) NETTUNO (TRE CANCELLI)
| 11:00 |
|
|
|
|
|
|--------------------------------------|------|---------------------------------------------------------------|-------|
COMITATO LAZIO
BIS
|
------------------------------------------------INDIRIZZO
TELEFONO
|
------------------------------------------------VIA DELLE VALLI 39
| 06
9276702
|
|
|
VIA GALILEO GALILEI SNC
| 0773 639044
|
|
|
VIA DELLE VALLI 39
| 06
9276702
|
|
|
VIA LOMBARDIA 48
| 06
9851839
|
|
|
VIA LUNGOMARE CABOTO SNC
|
|
|
|
VIA DEL CAMPO SPORTIVO SNC
| 06
9625932
|
|
|
VIA PONTINA KM 31.400
|
|
|
|
VIA MADONNA DELLE GRAZIE
| 347 7524610
|
|
|
PIAZZA MONS.C.GUERRUCCI,SNC
|
|
|
|
VIA BASSIANO
SNC
|
|
|
|
VIA SAN SEBASTIANO SNC
|
|
|
|
VIA SICILIA 27
| 06
9396788
|
|
|
VIA DANTE ALIGHIERI 23
|
|
|
|
VIA LOMBARDIA 1
| 06
9696247
|
|
|
LUNGOMARE DELLA PINETA 140
| 06
91648061 |
|
|
VIA PISCINA TRE CANCELLI SNC
| 06
9858466
|
|
|
-------------------------------------------------
- CRL 18/23 -
* * * * E L E N C O
CAMPIONATO
D E L L E
GR
G A R E * * * *
24/09/14
Pag.
2
GIOVANISSIMI REGIONALI
-----------------------------------------------------------------------------------------------------------------------------------------------------------------------------------------------------GIRONE D
GIORNATA 1 ANDATA
Le società in neretto sono fuori classifica
-----------------------------------------------------------------------------------------------------------------------------------------------------------------------------------------------------1) APRILIA S.R.L.
CYNTHIA 1920 S.R.L.
514 CI.MA.NUOVO PRIMAVERA (SINTEX)
APRILIA
5/10/14
9:00
VIA DELLE VALLI 39
2) BORGO PODGORA 1950
VIRTUS NETTUNO
313 BONGIORNO PIETRO "A"
(ERBA)
LATINA (BORGO PODGORA)
5/10/14
9:30
VIA GALILEO GALILEI SNC
3) CENTRO SPORTIVO PRIMAVERA
PONTINIA
514 CI.MA.NUOVO PRIMAVERA (SINTEX)
APRILIA
5/10/14 10:30
VIA DELLE VALLI 39
4) CITTA DI NETTUNO
CALCIO SEZZE
278 DE FRANCESCHI FILIBERTO(TERRA)
NETTUNO
5/10/14
9:30
VIA LOMBARDIA 48
5) DON BOSCO GAETA A.S.D.
CITTA DI MINTURNOMARINA
360 ANELLINO FRANCESCO
(TERRA)
GAETA (SAN CARLO)
5/10/14
9:00
VIA LUNGOMARE CABOTO SNC
6) FORTITUDO VELLETRI 1986
PRO CISTERNA 1926
82 SCAVO GIOVANNI "B"
(SINTEX)
VELLETRI
5/10/14
9:00
VIA DEL CAMPO SPORTIVO SNC
7) SELVA DEI PINI POMEZIA
ALBALONGA
894 SPORT'S CAMPUS
(SINTEX)
POMEZIA
5/10/14
9:30
VIA PONTINA KM 31.400
8) SERMONETA CALCIO
RACING CLUB S.T.
326 CAETANI CAMILLO
(ERBA)
SERMONETA
5/10/14 10:30
VIA MADONNA DELLE GRAZIE
COMITATO LAZIO
* * * * E L E N C O
CAMPIONATO
GR
D E L L E
G A R E * * * *
GIOVANISSIMI REGIONALI
24/09/14
Pag.
2
-----------------------------------------------------------------------------------------------------------------------------------------------------------------------------------------------------GIRONE D
GIORNATA 2 ANDATA
Le società in neretto sono fuori classifica
-----------------------------------------------------------------------------------------------------------------------------------------------------------------------------------------------------1) ALBALONGA
CENTRO SPORTIVO PRIMAVERA
44 PIO XII
(ERBA)
ALBANO LAZIALE
12/10/14
9:00
PIAZZA MONS.C.GUERRUCCI,SNC
2) CALCIO SEZZE
DON BOSCO GAETA A.S.D.
684 LE FONTANELLE
(TERRA)
SEZZE
12/10/14
9:00
VIA BASSIANO
SNC
3) CITTA DI MINTURNOMARINA
APRILIA S.R.L.
79 CARACCIOLO CARAFA
(TERRA)
MINTURNO
12/10/14
9:00
VIA SAN SEBASTIANO SNC
4) CYNTHIA 1920 S.R.L.
BORGO PODGORA 1950
407 COMUNALE "A"
(ERBA)
GENZANO DI ROMA
12/10/14 11:00
VIA SICILIA 27
5) PONTINIA
SERMONETA CALCIO
76 COMUNALE
(ERBA)
PONTINIA
12/10/14
9:00
VIA DANTE ALIGHIERI 23
6) PRO CISTERNA 1926
SELVA DEI PINI POMEZIA
17 BARTOLANI DOMENICO
(SINTEX)
CISTERNA DI LATINA
12/10/14 10:00
VIA LOMBARDIA 1
7) RACING CLUB S.T.
CITTA DI NETTUNO
998 NARDONI LAURA (EX TOVALIERI) S
ARDEA (TOR SAN LORENZO)
12/10/14
9:30
LUNGOMARE DELLA PINETA 140
8) VIRTUS NETTUNO
FORTITUDO VELLETRI 1986
596 RICCI MIRKO
(TERRA)
NETTUNO (TRE CANCELLI)
12/10/14 11:00
VIA PISCINA TRE CANCELLI SNC
- CRL 18/24 -
************************************************************************
*
*
*
GIOVANISSIMI REGIONALI FASCIA B
GIRONE:
*
*
************************************************************************
.--------------------------------------------------------------.
.--------------------------------------------------------------.
| ANDATA: 4/10/14 |
| RITORNO: 10/01/15 |
| ANDATA: 8/11/14 |
| RITORNO: 28/02/15 |
| ORE...: 15:00
|
1 G I O R N A T A | ORE....: 15:00
|
| ORE...: 15:00
| 6 G I O R N A T A
| ORE....: 15:00
|
|--------------------------------------------------------------|
|--------------------------------------------------------------|
| ACQUACETOSA CENTRO CALCIO
- FONTE NUOVA
|
| ACCADEMIA CALCIO ROMA
- ATHLETIC SOCCER ACADEMY
|
| ATHLETIC SOCCER ACADEMY
- SANSA F.C.
|
| FIANO ROMANO
- NUOVA MILVIA
|
| ATLETICO FIDENE
- CIRCOLO GUARDIADIFINANZA
|
| FONTE NUOVA
- SANSA F.C.
|
| MONTECELIO BORUSSIA
- GUIDONIA MONTECELIO
|
| GUIDONIA MONTECELIO
- CIRCOLO GUARDIADIFINANZA
|
| NUOVA MILVIA
- VILLANOVA CALCIO
|
| RIETI S.R.L.
- MONTECELIO BORUSSIA
|
| RIETI S.R.L.
- FIANO ROMANO
|
| SPORTING TANAS CALCIO
- ATLETICO FIDENE
|
| SPORTING TANAS CALCIO
- ACCADEMIA CALCIO ROMA
|
| VILLANOVA CALCIO
- ACQUACETOSA CENTRO CALCIO
|
.--------------------------------------------------------------.
.--------------------------------------------------------------.
| ANDATA: 11/10/14 |
| RITORNO: 17/01/15 |
| ANDATA: 15/11/14 |
| RITORNO: 7/03/15 |
| ORE...: 15:00
|
2 G I O R N A T A | ORE....: 15:00
|
| ORE...: 15:00
| 7 G I O R N A T A
| ORE....: 15:00
|
|--------------------------------------------------------------|
|--------------------------------------------------------------|
| ACCADEMIA CALCIO ROMA
- RIETI S.R.L.
|
| ATHLETIC SOCCER ACADEMY
- SPORTING TANAS CALCIO
|
| CIRCOLO GUARDIADIFINANZA
- ATHLETIC SOCCER ACADEMY
|
| ATLETICO FIDENE
- RIETI S.R.L.
|
| FIANO ROMANO
- ACQUACETOSA CENTRO CALCIO
|
| CIRCOLO GUARDIADIFINANZA
- FONTE NUOVA
|
| FONTE NUOVA
- MONTECELIO BORUSSIA
|
| GUIDONIA MONTECELIO
- VILLANOVA CALCIO
|
| GUIDONIA MONTECELIO
- ATLETICO FIDENE
|
| MONTECELIO BORUSSIA
- ACQUACETOSA CENTRO CALCIO
|
| SANSA F.C.
- NUOVA MILVIA
|
| NUOVA MILVIA
- ACCADEMIA CALCIO ROMA
|
| VILLANOVA CALCIO
- SPORTING TANAS CALCIO
|
| SANSA F.C.
- FIANO ROMANO
|
.--------------------------------------------------------------.
.--------------------------------------------------------------.
| ANDATA: 18/10/14 |
| RITORNO: 24/01/15 |
| ANDATA: 22/11/14 |
| RITORNO: 14/03/15 |
| ORE...: 15:00
|
3 G I O R N A T A | ORE....: 15:00
|
| ORE...: 15:00
| 8 G I O R N A T A
| ORE....: 15:00
|
|--------------------------------------------------------------|
|--------------------------------------------------------------|
| ACQUACETOSA CENTRO CALCIO
- ACCADEMIA CALCIO ROMA
|
| ACCADEMIA CALCIO ROMA
- SANSA F.C.
|
| ATHLETIC SOCCER ACADEMY
- GUIDONIA MONTECELIO
|
| ACQUACETOSA CENTRO CALCIO
- ATLETICO FIDENE
|
| ATLETICO FIDENE
- FONTE NUOVA
|
| FIANO ROMANO
- CIRCOLO GUARDIADIFINANZA
|
| MONTECELIO BORUSSIA
- FIANO ROMANO
|
| FONTE NUOVA
- GUIDONIA MONTECELIO
|
| NUOVA MILVIA
- CIRCOLO GUARDIADIFINANZA
|
| RIETI S.R.L.
- ATHLETIC SOCCER ACADEMY
|
| RIETI S.R.L.
- SPORTING TANAS CALCIO
|
| SPORTING TANAS CALCIO
- NUOVA MILVIA
|
| SANSA F.C.
- VILLANOVA CALCIO
|
| VILLANOVA CALCIO
- MONTECELIO BORUSSIA
|
.--------------------------------------------------------------.
.--------------------------------------------------------------.
| ANDATA: 25/10/14 |
| RITORNO: 31/01/15 |
| ANDATA: 29/11/14 |
| RITORNO: 21/03/15 |
| ORE...: 15:00
|
4 G I O R N A T A | ORE....: 15:00
|
| ORE...: 15:00
| 9 G I O R N A T A
| ORE....: 15:00
|
|--------------------------------------------------------------|
|--------------------------------------------------------------|
| ACCADEMIA CALCIO ROMA
- MONTECELIO BORUSSIA
|
| ATHLETIC SOCCER ACADEMY
- ACQUACETOSA CENTRO CALCIO
|
| CIRCOLO GUARDIADIFINANZA
- SANSA F.C.
|
| ATLETICO FIDENE
- MONTECELIO BORUSSIA
|
| FIANO ROMANO
- ATLETICO FIDENE
|
| CIRCOLO GUARDIADIFINANZA
- ACCADEMIA CALCIO ROMA
|
| FONTE NUOVA
- ATHLETIC SOCCER ACADEMY
|
| FONTE NUOVA
- VILLANOVA CALCIO
|
| GUIDONIA MONTECELIO
- NUOVA MILVIA
|
| GUIDONIA MONTECELIO
- FIANO ROMANO
|
| SPORTING TANAS CALCIO
- ACQUACETOSA CENTRO CALCIO
|
| NUOVA MILVIA
- RIETI S.R.L.
|
| VILLANOVA CALCIO
- RIETI S.R.L.
|
| SANSA F.C.
- SPORTING TANAS CALCIO
|
.--------------------------------------------------------------.
.--------------------------------------------------------------.
| ANDATA: 1/11/14 |
| RITORNO: 21/02/15 |
| ANDATA: 6/12/14 |
| RITORNO: 28/03/15 |
| ORE...: 15:00
|
5 G I O R N A T A | ORE....: 15:00
|
| ORE...: 15:00
| 10 G I O R N A T A
| ORE....: 15:00
|
|--------------------------------------------------------------|
|--------------------------------------------------------------|
| ACQUACETOSA CENTRO CALCIO
- RIETI S.R.L.
|
| ACCADEMIA CALCIO ROMA
- GUIDONIA MONTECELIO
|
| ATHLETIC SOCCER ACADEMY
- FIANO ROMANO
|
| ACQUACETOSA CENTRO CALCIO
- NUOVA MILVIA
|
| ATLETICO FIDENE
- ACCADEMIA CALCIO ROMA
|
| FIANO ROMANO
- FONTE NUOVA
|
| CIRCOLO GUARDIADIFINANZA
- VILLANOVA CALCIO
|
| MONTECELIO BORUSSIA
- ATHLETIC SOCCER ACADEMY
|
| MONTECELIO BORUSSIA
- SPORTING TANAS CALCIO
|
| RIETI S.R.L.
- SANSA F.C.
|
| NUOVA MILVIA
- FONTE NUOVA
|
| SPORTING TANAS CALCIO
- CIRCOLO GUARDIADIFINANZA
|
| SANSA F.C.
- GUIDONIA MONTECELIO
|
| VILLANOVA CALCIO
- ATLETICO FIDENE
|
|--------------------------------------------------------------|
|--------------------------------------------------------------|
B
*
.--------------------------------------------------------------.
| ANDATA: 13/12/14 |
| RITORNO: 11/04/15 |
| ORE...: 15:00
| 11 G I O R N A T A | ORE....: 15:00
|
|--------------------------------------------------------------|
| ATHLETIC SOCCER ACADEMY
- ATLETICO FIDENE
|
| CIRCOLO GUARDIADIFINANZA
- RIETI S.R.L.
|
| FIANO ROMANO
- VILLANOVA CALCIO
|
| FONTE NUOVA
- ACCADEMIA CALCIO ROMA
|
| GUIDONIA MONTECELIO
- SPORTING TANAS CALCIO
|
| NUOVA MILVIA
- MONTECELIO BORUSSIA
|
| SANSA F.C.
- ACQUACETOSA CENTRO CALCIO
|
.--------------------------------------------------------------.
| ANDATA: 20/12/14 |
| RITORNO: 18/04/15 |
| ORE...: 15:00
| 12 G I O R N A T A | ORE....: 15:00
|
|--------------------------------------------------------------|
| ACCADEMIA CALCIO ROMA
- FIANO ROMANO
|
| ACQUACETOSA CENTRO CALCIO
- CIRCOLO GUARDIADIFINANZA
|
| ATHLETIC SOCCER ACADEMY
- VILLANOVA CALCIO
|
| ATLETICO FIDENE
- NUOVA MILVIA
|
| MONTECELIO BORUSSIA
- SANSA F.C.
|
| RIETI S.R.L.
- GUIDONIA MONTECELIO
|
| SPORTING TANAS CALCIO
- FONTE NUOVA
|
.--------------------------------------------------------------.
| ANDATA: 3/01/15 |
| RITORNO: 25/04/15 |
| ORE...: 15:00
| 13 G I O R N A T A | ORE....: 15:00
|
|--------------------------------------------------------------|
| CIRCOLO GUARDIADIFINANZA
- MONTECELIO BORUSSIA
|
| FIANO ROMANO
- SPORTING TANAS CALCIO
|
| FONTE NUOVA
- RIETI S.R.L.
|
| GUIDONIA MONTECELIO
- ACQUACETOSA CENTRO CALCIO
|
| NUOVA MILVIA
- ATHLETIC SOCCER ACADEMY
|
| SANSA F.C.
- ATLETICO FIDENE
|
| VILLANOVA CALCIO
- ACCADEMIA CALCIO ROMA
|
.--------------------------------------------------------------.
- CRL 18/25 -
---------------------------*
|
|
**
| COMITATO
|
E L E N C O
C A M P I
D A
G I O C O
*-----------------------------------*
**
|
|
GIOVANISSIMI REGIONALI FASCIA B
GIRONE:
B
| LAZIO
|
**
|---------------------------------------------------------------------------------------------------------------------|
| SOCIETA'
| CAMPO| DENOMINAZIONE CAMPO
LOCALITA' CAMPO
| ORA |
|--------------------------------------|------|---------------------------------------------------------------|-------|
|
|
|
|
|
| ACQUACETOSA CENTRO CALCIO
|
87 | TESTA VITTORIO "A"
(SINTEX) ROMA (TOR DI QUINTO)
| 18:00 |
|
|
|
|
|
| ATHLETIC SOCCER ACADEMY
| 987 | CLAUDIO ED ANDREA
(ERBA) ROMA (PRIMA PORTA)
| 15:00 |
|
|
|
|
|
| ATLETICO FIDENE
| 527 | MONTESACRO
(SINTEX) ROMA (NOMENTANA)
| 16:15 |
|
|
|
|
|
| MONTECELIO BORUSSIA
| 297 | VALENTINI FABRIZIO
(TERRA) ROMA (TORRE GAIA)
| 15:00 |
|
|
|
|
|
| NUOVA MILVIA
| 263 | ANGELUCCI VITTORIO
(SINTEX) ROMA (SETTEBAGNI)
| 12:15 |
|
|
|
|
|
| RIETI S.R.L.
| 780 | CICCAGLIONI ROBERTO
(SINTEX) RIETI
| 17:30 |
|
|
|
|
|
| SPORTING TANAS CALCIO
|
22 | SBARDELLA ANTONIO
(SINTEX) ROMA (PRIMAVALLE)
| 9:00 |
|
|
|
|
|
| ACCADEMIA CALCIO ROMA
| 540 | ACADEMY SPORT CENTER (SINTEX) ROMA (BUFALOTTA)
| 16:45 |
|
|
|
|
|
| CIRCOLO GUARDIADIFINANZA
| 721 | CENTRO LOGISTICO GDF
(ERBA) ROMA (SALARIO)
| 15:00 |
|
|
|
|
|
| FIANO ROMANO
| 626 | VECCHIO COMUNALE
(SINTEX) FIANO ROMANO
| 15:00 |
|
|
|
|
|
| FONTE NUOVA
|
24 | COMUNALE
(SINTEX) FONTE NUOVA
| 9:00 |
|
|
|
|
|
| GUIDONIA MONTECELIO
|
7 | COMUNALE
(SINTEX) GUIDONIA MONTECELIO
| 17:00 |
|
|
|
|
|
| SANSA F.C.
| 624 | STADIO DEI FERROVIERI (TERRA) ROMA (FIDENE)
| 15:00 |
|
|
|
|
|
| VILLANOVA CALCIO
|
98 | FERRARIS ATTILIO
(SINTEX) GUIDONIA MONTECELIO-(VILLANOVA| 16:30 |
|
|
|
|
|
|--------------------------------------|------|---------------------------------------------------------------|-------|
|
------------------------------------------------INDIRIZZO
TELEFONO
|
------------------------------------------------VIA DEL BAIARDO 25
| 06
3330083
|
|
|
VIA DI SANTA CORNELIA 238
| 06
33616186 |
|
|
VIA NOMENTANA 858
| 06
82004465 |
|
|
VIA GROTTE CELONI 85
| 06
45425755 |
|
|
VIA SALARIA 1403
| 0766 8887395
|
|
|
VIA TERMINILLO, SNC
|
|
|
|
VIA CARD. D. CAPRANICA 41
| 366 45441397 |
|
|
VIA DI SETTEBAGNI 340
|
|
|
|
VIA CASTIGLION FIORENTINO 40/5 | 06
8813643
|
|
|
VIA DELLO SPORT SNC
| 0765 482828
|
|
|
VIA GIOBERTI SNC
| 06
9059755
|
|
|
VIA DEL CAMPO SPORTIVO SNC
| 0774 6573974
|
|
|
VIA DI VILLA SPADA 64
| 06
47304236 |
|
|
VIA UMBERTO I, 3
| 342 324682
|
|
|
-------------------------------------------------
- CRL 18/26 -
COMITATO LAZIO
* * * * E L E N C O
CAMPIONATO
GS
D E L L E
G A R E * * * *
GIOVANISSIMI REGIONALI FASCIA B
23/09/14
Pag.
2
-----------------------------------------------------------------------------------------------------------------------------------------------------------------------------------------------------GIRONE B
GIORNATA 1 ANDATA
Le società in neretto sono fuori classifica
-----------------------------------------------------------------------------------------------------------------------------------------------------------------------------------------------------1) ACQUACETOSA CENTRO CALCIO
FONTE NUOVA
87 TESTA VITTORIO "A"
(SINTEX)
ROMA (TOR DI QUINTO)
4/10/14 18:00
VIA DEL BAIARDO 25
2) ATHLETIC SOCCER ACADEMY
SANSA F.C.
987 CLAUDIO ED ANDREA
(ERBA)
ROMA (PRIMA PORTA)
4/10/14 15:00
VIA DI SANTA CORNELIA 238
3) ATLETICO FIDENE
CIRCOLO GUARDIADIFINANZA
527 MONTESACRO
(SINTEX)
ROMA (NOMENTANA)
4/10/14 16:15
VIA NOMENTANA 858
4) MONTECELIO BORUSSIA
GUIDONIA MONTECELIO
297 VALENTINI FABRIZIO
(TERRA)
ROMA (TORRE GAIA)
4/10/14 15:00
VIA GROTTE CELONI 85
5) NUOVA MILVIA
VILLANOVA CALCIO
263 ANGELUCCI VITTORIO
(SINTEX)
ROMA (SETTEBAGNI)
5/10/14 12:15
VIA SALARIA 1403
6) RIETI S.R.L.
FIANO ROMANO
780 CICCAGLIONI ROBERTO
(SINTEX)
RIETI
4/10/14 17:30
VIA TERMINILLO, SNC
7) SPORTING TANAS CALCIO
ACCADEMIA CALCIO ROMA
22 SBARDELLA ANTONIO
(SINTEX)
ROMA (PRIMAVALLE)
5/10/14
9:00
VIA CARD. D. CAPRANICA 41
COMITATO LAZIO
* * * * E L E N C O
CAMPIONATO
GS
D E L L E
G A R E * * * *
GIOVANISSIMI REGIONALI FASCIA B
23/09/14
Pag.
2
-----------------------------------------------------------------------------------------------------------------------------------------------------------------------------------------------------GIRONE B
GIORNATA 2 ANDATA
Le società in neretto sono fuori classifica
-----------------------------------------------------------------------------------------------------------------------------------------------------------------------------------------------------1) ACCADEMIA CALCIO ROMA
RIETI S.R.L.
540 ACADEMY SPORT CENTER (SINTEX)
ROMA (BUFALOTTA)
11/10/14 16:45
VIA DI SETTEBAGNI 340
2) CIRCOLO GUARDIADIFINANZA
ATHLETIC SOCCER ACADEMY
721 CENTRO LOGISTICO GDF
(ERBA)
ROMA (SALARIO)
11/10/14 15:00
VIA CASTIGLION FIORENTINO 40/5
3) FIANO ROMANO
ACQUACETOSA CENTRO CALCIO
626 VECCHIO COMUNALE
(SINTEX)
FIANO ROMANO
11/10/14 15:00
VIA DELLO SPORT SNC
4) FONTE NUOVA
MONTECELIO BORUSSIA
24 COMUNALE
(SINTEX)
FONTE NUOVA
12/10/14
9:00
VIA GIOBERTI SNC
5) GUIDONIA MONTECELIO
ATLETICO FIDENE
7 COMUNALE
(SINTEX)
GUIDONIA MONTECELIO
11/10/14 17:00
VIA DEL CAMPO SPORTIVO SNC
6) SANSA F.C.
NUOVA MILVIA
624 STADIO DEI FERROVIERI (TERRA)
ROMA (FIDENE)
11/10/14 15:00
VIA DI VILLA SPADA 64
7) VILLANOVA CALCIO
SPORTING TANAS CALCIO
98 FERRARIS ATTILIO
(SINTEX)
GUIDONIA MONTECELIO-(VILLANOVA 11/10/14 16:30
VIA UMBERTO I, 3
Author
Document
Category
Uncategorized
Views
2
File Size
236 KB
Tags
1/--pages
Report inappropriate content